ISO-10303-21;
HEADER;
FILE_DESCRIPTION (( 'STEP AP203' ),
    '1' );
FILE_NAME ('966070.step',
    '2021-11-16T15:36:10',
    ( '' ),
    ( '' ),
    'SwSTEP 2.0',
    'SolidWorks 2019',
    '' );
FILE_SCHEMA (( 'CONFIG_CONTROL_DESIGN' ));
ENDSEC;

DATA;
#1 = VERTEX_POINT ( 'NONE', #79 ) ;
#2 = APPLICATION_CONTEXT ( 'configuration controlled 3d designs of mechanical parts and assemblies' ) ;
#3 = CARTESIAN_POINT ( 'NONE',  ( 8.728703347107831810E-15, -0.5000000000000002220, 2.499999999999999556 ) ) ;
#4 = APPROVAL_STATUS ( 'not_yet_approved' ) ;
#5 = APPROVAL_ROLE ( '' ) ;
#6 = PERSON_AND_ORGANIZATION ( #32, #12 ) ;
#7 = AXIS2_PLACEMENT_3D ( 'NONE', #185, #146, #201 ) ;
#8 = EDGE_CURVE ( 'NONE', #61, #61, #123, .T. ) ;
#9 = APPROVAL_DATE_TIME ( #86, #18 ) ;
#10 = EDGE_LOOP ( 'NONE', ( #20 ) ) ;
#11 = DIRECTION ( 'NONE',  ( 0.0000000000000000000, 1.000000000000000000, 0.0000000000000000000 ) ) ;
#12 = ORGANIZATION ( 'UNSPECIFIED', 'UNSPECIFIED', '' ) ;
#13 = FACE_OUTER_BOUND ( 'NONE', #127, .T. ) ;
#14 = APPROVAL ( #191, 'UNSPECIFIED' ) ;
#15 = CARTESIAN_POINT ( 'NONE',  ( 8.728703347107833388E-15, 1.124819836996387185E-32, 2.500000000000000000 ) ) ;
#16 = APPLICATION_CONTEXT ( 'configuration controlled 3d designs of mechanical parts and assemblies' ) ;
#17 = FACE_OUTER_BOUND ( 'NONE', #106, .T. ) ;
#18 = APPROVAL ( #4, 'UNSPECIFIED' ) ;
#19 = CARTESIAN_POINT ( 'NONE',  ( 0.0000000000000000000, 0.0000000000000000000, 0.0000000000000000000 ) ) ;
#20 = ORIENTED_EDGE ( 'NONE', *, *, #219, .F. ) ;
#21 = CARTESIAN_POINT ( 'NONE',  ( 1.316288464743861212E-13, 1.499999999999992228, 37.69999999999999574 ) ) ;
#22 = DIRECTION ( 'NONE',  ( 3.491481338843133355E-15, -1.219242935835426903E-16, 1.000000000000000000 ) ) ;
#23 = CLOSED_SHELL ( 'NONE', ( #119, #97, #130 ) ) ;
#24 = PRODUCT_DEFINITION_FORMATION_WITH_SPECIFIED_SOURCE ( 'ANY', '', #101, .NOT_KNOWN. ) ;
#25 = CARTESIAN_POINT ( 'NONE',  ( 8.728703347107831810E-15, -3.048107339588566764E-16, 2.499999999999999556 ) ) ;
#26 = ADVANCED_FACE ( 'NONE', ( #184, #53 ), #207, .T. ) ;
#27 = DIRECTION ( 'NONE',  ( -4.256963957985712392E-31, -1.000000000000000000, -1.219242935835427396E-16 ) ) ;
#28 = PERSON_AND_ORGANIZATION ( #32, #12 ) ;
#29 = PRODUCT_DEFINITION_SHAPE ( 'NONE', 'NONE',  #208 ) ;
#30 = AXIS2_PLACEMENT_3D ( 'NONE', #243, #77, #136 ) ;
#31 = DATE_TIME_ROLE ( 'classification_date' ) ;
#32 = PERSON ( 'UNSPECIFIED', 'UNSPECIFIED', 'UNSPECIFIED', ('UNSPECIFIED'), ('UNSPECIFIED'), ('UNSPECIFIED') ) ;
#33 = CALENDAR_DATE ( 2021, 16, 11 ) ;
#34 = EDGE_CURVE ( 'NONE', #137, #137, #48, .T. ) ;
#35 = TOROIDAL_SURFACE ( 'NONE', #168, 2.500000000000000888, 2.000000000000000444 ) ;
#36 = ORIENTED_EDGE ( 'NONE', *, *, #73, .T. ) ;
#37 = CARTESIAN_POINT ( 'NONE',  ( 3.570879932466776105E-14, -1.246969326154032852E-15, 10.22740661031271614 ) ) ;
#38 = CC_DESIGN_PERSON_AND_ORGANIZATION_ASSIGNMENT ( #80, #206, ( #101 ) ) ;
#39 = CARTESIAN_POINT ( 'NONE',  ( 1.326762908760390423E-13, -4.653657836759941941E-15, 38.00000000000000000 ) ) ;
#40 = AXIS2_PLACEMENT_3D ( 'NONE', #169, #133, #11 ) ;
#41 = LOCAL_TIME ( 16, 36, 9.000000000000000000, #213 ) ;
#42 = DIRECTION ( 'NONE',  ( -3.491481338843133355E-15, 1.224646799147353207E-16, -1.000000000000000000 ) ) ;
#43 = DIRECTION ( 'NONE',  ( 4.275831445896958607E-31, 1.000000000000000000, 1.224646799147352961E-16 ) ) ;
#44 = EDGE_LOOP ( 'NONE', ( #239 ) ) ;
#45 = CARTESIAN_POINT ( 'NONE',  ( -1.709385285495556133E-30, 5.969259840443669444E-32, -4.895874041996007297E-16 ) ) ;
#46 = DIRECTION ( 'NONE',  ( 3.491481338843133355E-15, -1.219242935835426903E-16, 1.000000000000000000 ) ) ;
#47 = MECHANICAL_CONTEXT ( 'NONE', #2, 'mechanical' ) ;
#48 = CIRCLE ( 'NONE', #197, 1.199999999999996847 ) ;
#49 = CC_DESIGN_APPROVAL ( #189, ( #208 ) ) ;
#50 = DIRECTION ( 'NONE',  ( 0.0000000000000000000, -1.000000000000000000, 0.0000000000000000000 ) ) ;
#51 = DATE_AND_TIME ( #232, #242 ) ;
#52 = CARTESIAN_POINT ( 'NONE',  ( 1.326762908760390423E-13, -4.653657836759941941E-15, 38.00000000000000000 ) ) ;
#53 = FACE_OUTER_BOUND ( 'NONE', #56, .T. ) ;
#54 = AXIS2_PLACEMENT_3D ( 'NONE', #37, #144, #238 ) ;
#55 = DIRECTION ( 'NONE',  ( 4.275831445896958607E-31, 1.000000000000000000, 1.224646799147353207E-16 ) ) ;
#56 = EDGE_LOOP ( 'NONE', ( #57 ) ) ;
#57 = ORIENTED_EDGE ( 'NONE', *, *, #103, .T. ) ;
#58 = APPROVAL_STATUS ( 'not_yet_approved' ) ;
#59 = CIRCLE ( 'NONE', #211, 0.4999999999999998890 ) ;
#60 = CC_DESIGN_DATE_AND_TIME_ASSIGNMENT ( #210, #160, ( #208 ) ) ;
#61 = VERTEX_POINT ( 'NONE', #3 ) ;
#62 = CARTESIAN_POINT ( 'NONE',  ( 8.728703347107831810E-15, -0.5000000000000002220, 2.499999999999999556 ) ) ;
#63 = CIRCLE ( 'NONE', #7, 1.499999999999994671 ) ;
#64 = CALENDAR_DATE ( 2021, 16, 11 ) ;
#65 = APPROVAL_DATE_TIME ( #51, #189 ) ;
#66 = AXIS2_PLACEMENT_3D ( 'NONE', #45, #46, #27 ) ;
#67 = CALENDAR_DATE ( 2021, 16, 11 ) ;
#68 = ADVANCED_FACE ( 'NONE', ( #147 ), #109, .F. ) ;
#69 = PERSON_AND_ORGANIZATION_ROLE ( 'design_supplier' ) ;
#70 = CIRCLE ( 'NONE', #66, 0.5000000000000000000 ) ;
#71 = DIRECTION ( 'NONE',  ( 3.491481338843133355E-15, -1.219242935835426903E-16, 1.000000000000000000 ) ) ;
#72 = CARTESIAN_POINT ( 'NONE',  ( 0.0000000000000000000, 0.0000000000000000000, 0.0000000000000000000 ) ) ;
#73 = EDGE_CURVE ( 'NONE', #96, #96, #74, .T. ) ;
#74 = CIRCLE ( 'NONE', #40, 1.499999999999996669 ) ;
#75 = ORIENTED_EDGE ( 'NONE', *, *, #219, .T. ) ;
#76 = FACE_OUTER_BOUND ( 'NONE', #202, .T. ) ;
#77 = DIRECTION ( 'NONE',  ( 3.491481338843133355E-15, -1.224646799147353207E-16, 1.000000000000000000 ) ) ;
#78 = ADVANCED_FACE ( 'NONE', ( #17, #89 ), #35, .F. ) ;
#79 = CARTESIAN_POINT ( 'NONE',  ( -1.922233483394841446E-30, -0.5000000000000000000, -5.505495509913720748E-16 ) ) ;
#80 = PERSON_AND_ORGANIZATION ( #32, #12 ) ;
#81 = AXIS2_PLACEMENT_3D ( 'NONE', #122, #165, #162 ) ;
#82 = DATE_AND_TIME ( #67, #141 ) ;
#83 = COORDINATED_UNIVERSAL_TIME_OFFSET ( 1, 0, .AHEAD. ) ;
#84 = CONICAL_SURFACE ( 'NONE', #126, 1.199999999999996847, 0.7853981633974453924 ) ;
#85 = CALENDAR_DATE ( 2021, 16, 11 ) ;
#86 = DATE_AND_TIME ( #33, #216 ) ;
#87 = EDGE_LOOP ( 'NONE', ( #222 ) ) ;
#88 = ADVANCED_FACE ( 'NONE', ( #129, #92 ), #84, .T. ) ;
#89 = FACE_OUTER_BOUND ( 'NONE', #204, .T. ) ;
#90 = CIRCLE ( 'NONE', #203, 0.5681483474218603780 ) ;
#91 = CC_DESIGN_SECURITY_CLASSIFICATION ( #155, ( #24 ) ) ;
#92 = FACE_BOUND ( 'NONE', #140, .T. ) ;
#93 = DIRECTION ( 'NONE',  ( 3.491481338843133355E-15, -1.224646799147353207E-16, 1.000000000000000000 ) ) ;
#94 = DIRECTION ( 'NONE',  ( -3.491481338843133355E-15, 1.224646799147353207E-16, -1.000000000000000000 ) ) ;
#95 = LOCAL_TIME ( 16, 36, 9.000000000000000000, #124 ) ;
#96 = VERTEX_POINT ( 'NONE', #21 ) ;
#97 = ADVANCED_FACE ( 'NONE', ( #13, #76 ), #235, .T. ) ;
#98 = DIRECTION ( 'NONE',  ( -4.275831445896958607E-31, -1.000000000000000000, -1.224646799147353207E-16 ) ) ;
#99 = CARTESIAN_POINT ( 'NONE',  ( 1.326762908760390423E-13, 1.199999999999992406, 38.00000000000000000 ) ) ;
#100 = VERTEX_POINT ( 'NONE', #240 ) ;
#101 = PRODUCT ( '966070', '966070', '', ( #47 ) ) ;
#102 = PERSON_AND_ORGANIZATION_ROLE ( 'classification_officer' ) ;
#103 = EDGE_CURVE ( 'NONE', #100, #100, #63, .T. ) ;
#104 = PERSON_AND_ORGANIZATION ( #32, #12 ) ;
#105 = CLOSED_SHELL ( 'NONE', ( #111, #88, #68, #26, #78, #241 ) ) ;
#106 = EDGE_LOOP ( 'NONE', ( #75 ) ) ;
#107 = CARTESIAN_POINT ( 'NONE',  ( 1.326762908760390423E-13, 8.998558695971053960E-33, 38.00000000000000000 ) ) ;
#108 = DESIGN_CONTEXT ( 'detailed design', #16, 'design' ) ;
#109 = PLANE ( 'NONE',  #179 ) ;
#110 = PLANE ( 'NONE',  #183 ) ;
#111 = ADVANCED_FACE ( 'NONE', ( #234, #142 ), #198, .T. ) ;
#112 = ORIENTED_EDGE ( 'NONE', *, *, #164, .F. ) ;
#113 = MANIFOLD_SOLID_BREP ( 'Corps-Déplacer/Copier1[2]', #23 ) ;
#114 = FACE_OUTER_BOUND ( 'NONE', #161, .T. ) ;
#115 = CARTESIAN_POINT ( 'NONE',  ( 8.728703347107831810E-15, -4.336808689942017736E-16, 2.499999999999999556 ) ) ;
#116 = DIRECTION ( 'NONE',  ( 0.0000000000000000000, -1.000000000000000000, 0.0000000000000000000 ) ) ;
#117 = ORIENTED_EDGE ( 'NONE', *, *, #224, .T. ) ;
#118 = DIRECTION ( 'NONE',  ( 0.0000000000000000000, 0.0000000000000000000, 1.000000000000000000 ) ) ;
#119 = ADVANCED_FACE ( 'NONE', ( #217 ), #110, .T. ) ;
#120 = AXIS2_PLACEMENT_3D ( 'NONE', #72, #128, #196 ) ;
#121 = CARTESIAN_POINT ( 'NONE',  ( 1.053602707933308977E-14, -0.5681483474218607110, 3.017638090205028600 ) ) ;
#122 = CARTESIAN_POINT ( 'NONE',  ( 8.728703347107831810E-15, -3.048107339588566764E-16, 2.499999999999999556 ) ) ;
#123 = CIRCLE ( 'NONE', #81, 0.4999999999999998890 ) ;
#124 = COORDINATED_UNIVERSAL_TIME_OFFSET ( 1, 0, .AHEAD. ) ;
#125 = PRODUCT_RELATED_PRODUCT_CATEGORY ( 'detail', '', ( #101 ) ) ;
#126 = AXIS2_PLACEMENT_3D ( 'NONE', #39, #163, #148 ) ;
#127 = EDGE_LOOP ( 'NONE', ( #134 ) ) ;
#128 = DIRECTION ( 'NONE',  ( 3.491481338843133355E-15, -1.219242935835426903E-16, 1.000000000000000000 ) ) ;
#129 = FACE_OUTER_BOUND ( 'NONE', #135, .T. ) ;
#130 = ADVANCED_FACE ( 'NONE', ( #114 ), #190, .F. ) ;
#131 = CC_DESIGN_APPROVAL ( #18, ( #155 ) ) ;
#132 = DIRECTION ( 'NONE',  ( -3.491481338843133355E-15, 1.224646799147353207E-16, -1.000000000000000000 ) ) ;
#133 = DIRECTION ( 'NONE',  ( -3.491481338843133355E-15, 1.224646799147353207E-16, -1.000000000000000000 ) ) ;
#134 = ORIENTED_EDGE ( 'NONE', *, *, #164, .T. ) ;
#135 = EDGE_LOOP ( 'NONE', ( #182 ) ) ;
#136 = DIRECTION ( 'NONE',  ( -4.275831445896958607E-31, -1.000000000000000000, -1.224646799147353207E-16 ) ) ;
#137 = VERTEX_POINT ( 'NONE', #99 ) ;
#138 = DATE_AND_TIME ( #85, #41 ) ;
#139 = PERSON_AND_ORGANIZATION_ROLE ( 'creator' ) ;
#140 = EDGE_LOOP ( 'NONE', ( #199 ) ) ;
#141 = LOCAL_TIME ( 16, 36, 9.000000000000000000, #83 ) ;
#142 = FACE_OUTER_BOUND ( 'NONE', #44, .T. ) ;
#143 = UNCERTAINTY_MEASURE_WITH_UNIT (LENGTH_MEASURE( 1.000000000000000082E-05 ), #226, 'distance_accuracy_value', 'NONE');
#144 = DIRECTION ( 'NONE',  ( 3.491481338843133355E-15, -1.219242935835426903E-16, 1.000000000000000000 ) ) ;
#145 = CC_DESIGN_PERSON_AND_ORGANIZATION_ASSIGNMENT ( #104, #214, ( #208 ) ) ;
#146 = DIRECTION ( 'NONE',  ( -3.491481338843133355E-15, 1.219242935835426903E-16, -1.000000000000000000 ) ) ;
#147 = FACE_OUTER_BOUND ( 'NONE', #225, .T. ) ;
#148 = DIRECTION ( 'NONE',  ( 0.0000000000000000000, 1.000000000000000000, 0.0000000000000000000 ) ) ;
#149 = ORIENTED_EDGE ( 'NONE', *, *, #8, .F. ) ;
#150 = VERTEX_POINT ( 'NONE', #121 ) ;
#151 = CARTESIAN_POINT ( 'NONE',  ( 1.053602707933308977E-14, -3.679233924390390001E-16, 3.017638090205028600 ) ) ;
#152 = APPROVAL_PERSON_ORGANIZATION ( #28, #18, #177 ) ;
#153 = VERTEX_POINT ( 'NONE', #62 ) ;
#154 = DIRECTION ( 'NONE',  ( 3.491481338843133355E-15, -1.224646799147353207E-16, 1.000000000000000000 ) ) ;
#155 = SECURITY_CLASSIFICATION ( '', '', #181 ) ;
#156 = COORDINATED_UNIVERSAL_TIME_OFFSET ( 1, 0, .AHEAD. ) ;
#157 = APPROVAL_ROLE ( '' ) ;
#158 = APPROVAL_PERSON_ORGANIZATION ( #223, #189, #157 ) ;
#159 = SHAPE_DEFINITION_REPRESENTATION ( #29, #227 ) ;
#160 = DATE_TIME_ROLE ( 'creation_date' ) ;
#161 = EDGE_LOOP ( 'NONE', ( #112 ) ) ;
#162 = DIRECTION ( 'NONE',  ( 0.0000000000000000000, -1.000000000000000000, 0.0000000000000000000 ) ) ;
#163 = DIRECTION ( 'NONE',  ( -3.491481338843133355E-15, 1.224646799147353207E-16, -1.000000000000000000 ) ) ;
#164 = EDGE_CURVE ( 'NONE', #1, #1, #70, .T. ) ;
#165 = DIRECTION ( 'NONE',  ( 3.491481338843133355E-15, -1.219242935835426903E-16, 1.000000000000000000 ) ) ;
#166 = DIRECTION ( 'NONE',  ( -4.275831445896958607E-31, -1.000000000000000000, -1.224646799147353207E-16 ) ) ;
#167 = CC_DESIGN_DATE_AND_TIME_ASSIGNMENT ( #138, #31, ( #155 ) ) ;
#168 = AXIS2_PLACEMENT_3D ( 'NONE', #115, #71, #221 ) ;
#169 = CARTESIAN_POINT ( 'NONE',  ( 1.316288464743861212E-13, -4.616918432785521081E-15, 37.69999999999999574 ) ) ;
#170 = EDGE_LOOP ( 'NONE', ( #117 ) ) ;
#171 = APPLICATION_PROTOCOL_DEFINITION ( 'international standard', 'config_control_design', 1994, #2 ) ;
#172 = CARTESIAN_POINT ( 'NONE',  ( -4.275811853558651348E-31, 1.499752910594655314E-32, -1.224641187678636516E-16 ) ) ;
#173 =( GEOMETRIC_REPRESENTATION_CONTEXT ( 3 ) GLOBAL_UNCERTAINTY_ASSIGNED_CONTEXT ( ( #143 ) ) GLOBAL_UNIT_ASSIGNED_CONTEXT ( ( #226, #186, #205 ) ) REPRESENTATION_CONTEXT ( 'NONE', 'WORKASPACE' ) );
#174 = DIRECTION ( 'NONE',  ( 1.000000000000000000, 0.0000000000000000000, 0.0000000000000000000 ) ) ;
#175 = APPLICATION_PROTOCOL_DEFINITION ( 'international standard', 'config_control_design', 1994, #16 ) ;
#176 = PERSON_AND_ORGANIZATION ( #32, #12 ) ;
#177 = APPROVAL_ROLE ( '' ) ;
#178 = COORDINATED_UNIVERSAL_TIME_OFFSET ( 1, 0, .AHEAD. ) ;
#179 = AXIS2_PLACEMENT_3D ( 'NONE', #107, #132, #55 ) ;
#180 = CC_DESIGN_PERSON_AND_ORGANIZATION_ASSIGNMENT ( #212, #69, ( #24 ) ) ;
#181 = SECURITY_CLASSIFICATION_LEVEL ( 'unclassified' ) ;
#182 = ORIENTED_EDGE ( 'NONE', *, *, #73, .F. ) ;
#183 = AXIS2_PLACEMENT_3D ( 'NONE', #15, #93, #166 ) ;
#184 = FACE_BOUND ( 'NONE', #170, .T. ) ;
#185 = CARTESIAN_POINT ( 'NONE',  ( 2.267841357442622063E-14, -7.919416678232952180E-16, 6.495355802743738138 ) ) ;
#186 =( NAMED_UNIT ( * ) PLANE_ANGLE_UNIT ( ) SI_UNIT ( $, .RADIAN. ) );
#187 = MANIFOLD_SOLID_BREP ( 'Corps-Déplacer/Copier1[1]', #105 ) ;
#188 = FACE_OUTER_BOUND ( 'NONE', #10, .T. ) ;
#189 = APPROVAL ( #58, 'UNSPECIFIED' ) ;
#190 = PLANE ( 'NONE',  #230 ) ;
#191 = APPROVAL_STATUS ( 'not_yet_approved' ) ;
#192 = APPROVAL_PERSON_ORGANIZATION ( #194, #14, #5 ) ;
#193 = APPROVAL_DATE_TIME ( #82, #14 ) ;
#194 = PERSON_AND_ORGANIZATION ( #32, #12 ) ;
#195 = AXIS2_PLACEMENT_3D ( 'NONE', #19, #118, #174 ) ;
#196 = DIRECTION ( 'NONE',  ( -4.256963957985708889E-31, -1.000000000000000000, -1.219242935835426903E-16 ) ) ;
#197 = AXIS2_PLACEMENT_3D ( 'NONE', #52, #94, #218 ) ;
#198 = CYLINDRICAL_SURFACE ( 'NONE', #215, 1.499999999999994671 ) ;
#199 = ORIENTED_EDGE ( 'NONE', *, *, #34, .T. ) ;
#200 = CARTESIAN_POINT ( 'NONE',  ( 0.0000000000000000000, 0.0000000000000000000, 0.0000000000000000000 ) ) ;
#201 = DIRECTION ( 'NONE',  ( 0.0000000000000000000, -1.000000000000000000, 0.0000000000000000000 ) ) ;
#202 = EDGE_LOOP ( 'NONE', ( #149 ) ) ;
#203 = AXIS2_PLACEMENT_3D ( 'NONE', #151, #229, #50 ) ;
#204 = EDGE_LOOP ( 'NONE', ( #233 ) ) ;
#205 =( NAMED_UNIT ( * ) SI_UNIT ( $, .STERADIAN. ) SOLID_ANGLE_UNIT ( ) );
#206 = PERSON_AND_ORGANIZATION_ROLE ( 'design_owner' ) ;
#207 = CONICAL_SURFACE ( 'NONE', #54, 2.499999999999995559, 0.2617993877991429130 ) ;
#208 = PRODUCT_DEFINITION ( 'UNKNOWN', '', #24, #108 ) ;
#209 = PLANE ( 'NONE',  #30 ) ;
#210 = DATE_AND_TIME ( #64, #95 ) ;
#211 = AXIS2_PLACEMENT_3D ( 'NONE', #25, #22, #116 ) ;
#212 = PERSON_AND_ORGANIZATION ( #32, #12 ) ;
#213 = COORDINATED_UNIVERSAL_TIME_OFFSET ( 1, 0, .AHEAD. ) ;
#214 = PERSON_AND_ORGANIZATION_ROLE ( 'creator' ) ;
#215 = AXIS2_PLACEMENT_3D ( 'NONE', #200, #42, #43 ) ;
#216 = LOCAL_TIME ( 16, 36, 9.000000000000000000, #156 ) ;
#217 = FACE_OUTER_BOUND ( 'NONE', #87, .T. ) ;
#218 = DIRECTION ( 'NONE',  ( 0.0000000000000000000, 1.000000000000000000, 0.0000000000000000000 ) ) ;
#219 = EDGE_CURVE ( 'NONE', #153, #153, #59, .T. ) ;
#220 = ORIENTED_EDGE ( 'NONE', *, *, #34, .F. ) ;
#221 = DIRECTION ( 'NONE',  ( -4.315975723326285674E-31, -1.000000000000000000, -1.219242935835426903E-16 ) ) ;
#222 = ORIENTED_EDGE ( 'NONE', *, *, #8, .T. ) ;
#223 = PERSON_AND_ORGANIZATION ( #32, #12 ) ;
#224 = EDGE_CURVE ( 'NONE', #150, #150, #90, .T. ) ;
#225 = EDGE_LOOP ( 'NONE', ( #220 ) ) ;
#226 =( LENGTH_UNIT ( ) NAMED_UNIT ( * ) SI_UNIT ( .MILLI., .METRE. ) );
#227 = ADVANCED_BREP_SHAPE_REPRESENTATION ( '966070', ( #187, #113, #195 ), #173 ) ;
#228 = CC_DESIGN_PERSON_AND_ORGANIZATION_ASSIGNMENT ( #176, #102, ( #155 ) ) ;
#229 = DIRECTION ( 'NONE',  ( 3.491481338843133355E-15, -1.219242935835426903E-16, 1.000000000000000000 ) ) ;
#230 = AXIS2_PLACEMENT_3D ( 'NONE', #172, #154, #98 ) ;
#231 = CC_DESIGN_APPROVAL ( #14, ( #24 ) ) ;
#232 = CALENDAR_DATE ( 2021, 16, 11 ) ;
#233 = ORIENTED_EDGE ( 'NONE', *, *, #224, .F. ) ;
#234 = FACE_OUTER_BOUND ( 'NONE', #237, .T. ) ;
#235 = CYLINDRICAL_SURFACE ( 'NONE', #120, 0.5000000000000000000 ) ;
#236 = CC_DESIGN_PERSON_AND_ORGANIZATION_ASSIGNMENT ( #6, #139, ( #24 ) ) ;
#237 = EDGE_LOOP ( 'NONE', ( #36 ) ) ;
#238 = DIRECTION ( 'NONE',  ( 0.0000000000000000000, -1.000000000000000000, 0.0000000000000000000 ) ) ;
#239 = ORIENTED_EDGE ( 'NONE', *, *, #103, .F. ) ;
#240 = CARTESIAN_POINT ( 'NONE',  ( 2.267841357442622063E-14, -1.499999999999995559, 6.495355802743738138 ) ) ;
#241 = ADVANCED_FACE ( 'NONE', ( #188 ), #209, .F. ) ;
#242 = LOCAL_TIME ( 16, 36, 9.000000000000000000, #178 ) ;
#243 = CARTESIAN_POINT ( 'NONE',  ( 8.728703347107833388E-15, 1.124819836996387185E-32, 2.500000000000000000 ) ) ;
ENDSEC;
END-ISO-10303-21;
