ISO-10303-21;
HEADER;
FILE_DESCRIPTION (( 'STEP AP203' ),
    '1' );
FILE_NAME ('966069.step',
    '2021-11-16T15:36:09',
    ( '' ),
    ( '' ),
    'SwSTEP 2.0',
    'SolidWorks 2019',
    '' );
FILE_SCHEMA (( 'CONFIG_CONTROL_DESIGN' ));
ENDSEC;

DATA;
#1 = FACE_OUTER_BOUND ( 'NONE', #8, .T. ) ;
#2 = PLANE ( 'NONE',  #153 ) ;
#3 = EDGE_LOOP ( 'NONE', ( #58 ) ) ;
#4 =( NAMED_UNIT ( * ) PLANE_ANGLE_UNIT ( ) SI_UNIT ( $, .RADIAN. ) );
#5 = DIRECTION ( 'NONE',  ( 3.491481338843133355E-15, -1.219242935835426903E-16, 1.000000000000000000 ) ) ;
#6 = CIRCLE ( 'NONE', #31, 1.199999999999996847 ) ;
#7 = EDGE_CURVE ( 'NONE', #22, #22, #202, .T. ) ;
#8 = EDGE_LOOP ( 'NONE', ( #130 ) ) ;
#9 = VERTEX_POINT ( 'NONE', #131 ) ;
#10 = DIRECTION ( 'NONE',  ( 0.0000000000000000000, 1.000000000000000000, 0.0000000000000000000 ) ) ;
#11 = PERSON_AND_ORGANIZATION ( #33, #77 ) ;
#12 = LOCAL_TIME ( 16, 36, 9.000000000000000000, #138 ) ;
#13 = PERSON_AND_ORGANIZATION ( #33, #77 ) ;
#14 = PERSON_AND_ORGANIZATION ( #33, #77 ) ;
#15 = ADVANCED_FACE ( 'NONE', ( #231, #152 ), #168, .T. ) ;
#16 = EDGE_CURVE ( 'NONE', #155, #155, #49, .T. ) ;
#17 = AXIS2_PLACEMENT_3D ( 'NONE', #218, #24, #10 ) ;
#18 = CYLINDRICAL_SURFACE ( 'NONE', #88, 0.4750000000000004774 ) ;
#19 = EDGE_LOOP ( 'NONE', ( #166 ) ) ;
#20 = DIRECTION ( 'NONE',  ( 0.0000000000000000000, 1.000000000000000000, 0.0000000000000000000 ) ) ;
#21 = EDGE_LOOP ( 'NONE', ( #32 ) ) ;
#22 = VERTEX_POINT ( 'NONE', #129 ) ;
#23 = APPROVAL_PERSON_ORGANIZATION ( #11, #48, #45 ) ;
#24 = DIRECTION ( 'NONE',  ( -3.491481338843133355E-15, 1.224646799147353207E-16, -1.000000000000000000 ) ) ;
#25 = CALENDAR_DATE ( 2021, 16, 11 ) ;
#26 = APPROVAL_ROLE ( '' ) ;
#27 = CARTESIAN_POINT ( 'NONE',  ( 0.0000000000000000000, 0.0000000000000000000, 0.0000000000000000000 ) ) ;
#28 = EDGE_CURVE ( 'NONE', #72, #72, #243, .T. ) ;
#29 = ORIENTED_EDGE ( 'NONE', *, *, #7, .F. ) ;
#30 = CIRCLE ( 'NONE', #170, 0.4750000000000005884 ) ;
#31 = AXIS2_PLACEMENT_3D ( 'NONE', #73, #230, #20 ) ;
#32 = ORIENTED_EDGE ( 'NONE', *, *, #55, .F. ) ;
#33 = PERSON ( 'UNSPECIFIED', 'UNSPECIFIED', 'UNSPECIFIED', ('UNSPECIFIED'), ('UNSPECIFIED'), ('UNSPECIFIED') ) ;
#34 = DIRECTION ( 'NONE',  ( -4.256963957985708889E-31, -1.000000000000000000, -1.219242935835426656E-16 ) ) ;
#35 = CARTESIAN_POINT ( 'NONE',  ( -4.275811853558651348E-31, 1.499752910594655314E-32, -1.224641187678636516E-16 ) ) ;
#36 = PLANE ( 'NONE',  #102 ) ;
#37 =( LENGTH_UNIT ( ) NAMED_UNIT ( * ) SI_UNIT ( .MILLI., .METRE. ) );
#38 = CARTESIAN_POINT ( 'NONE',  ( 8.379555213223516897E-15, -2.926183046005023679E-16, 2.399999999999999467 ) ) ;
#39 = DIRECTION ( 'NONE',  ( 0.0000000000000000000, -1.000000000000000000, 0.0000000000000000000 ) ) ;
#40 = ADVANCED_FACE ( 'NONE', ( #1, #207 ), #18, .T. ) ;
#41 = DIRECTION ( 'NONE',  ( -3.491481338843133355E-15, 1.219242935835426903E-16, -1.000000000000000000 ) ) ;
#42 = APPLICATION_PROTOCOL_DEFINITION ( 'international standard', 'config_control_design', 1994, #176 ) ;
#43 = FACE_BOUND ( 'NONE', #101, .T. ) ;
#44 = APPLICATION_PROTOCOL_DEFINITION ( 'international standard', 'config_control_design', 1994, #186 ) ;
#45 = APPROVAL_ROLE ( '' ) ;
#46 = CIRCLE ( 'NONE', #139, 1.499999999999996669 ) ;
#47 =( GEOMETRIC_REPRESENTATION_CONTEXT ( 3 ) GLOBAL_UNCERTAINTY_ASSIGNED_CONTEXT ( ( #219 ) ) GLOBAL_UNIT_ASSIGNED_CONTEXT ( ( #37, #4, #54 ) ) REPRESENTATION_CONTEXT ( 'NONE', 'WORKASPACE' ) );
#48 = APPROVAL ( #140, 'UNSPECIFIED' ) ;
#49 = CIRCLE ( 'NONE', #67, 0.4750000000000004219 ) ;
#50 = EDGE_LOOP ( 'NONE', ( #228 ) ) ;
#51 = DIRECTION ( 'NONE',  ( -4.275831445896958607E-31, -1.000000000000000000, -1.224646799147353207E-16 ) ) ;
#52 = DIRECTION ( 'NONE',  ( 0.0000000000000000000, -1.000000000000000000, 0.0000000000000000000 ) ) ;
#53 = DIRECTION ( 'NONE',  ( 3.491481338843133355E-15, -1.219242935835426903E-16, 1.000000000000000000 ) ) ;
#54 =( NAMED_UNIT ( * ) SI_UNIT ( $, .STERADIAN. ) SOLID_ANGLE_UNIT ( ) );
#55 = EDGE_CURVE ( 'NONE', #212, #212, #30, .T. ) ;
#56 = CARTESIAN_POINT ( 'NONE',  ( 3.568541083453947645E-14, -1.246152588253946979E-15, 10.22070788050193890 ) ) ;
#57 = FACE_OUTER_BOUND ( 'NONE', #50, .T. ) ;
#58 = ORIENTED_EDGE ( 'NONE', *, *, #16, .T. ) ;
#59 = CARTESIAN_POINT ( 'NONE',  ( -1.900948663604913370E-30, -0.4750000000000005884, -5.444533363121949699E-16 ) ) ;
#60 = PERSON_AND_ORGANIZATION_ROLE ( 'design_owner' ) ;
#61 = DIRECTION ( 'NONE',  ( 0.0000000000000000000, 0.0000000000000000000, 1.000000000000000000 ) ) ;
#62 = LOCAL_TIME ( 16, 36, 9.000000000000000000, #225 ) ;
#63 = DIRECTION ( 'NONE',  ( 1.000000000000000000, 0.0000000000000000000, 0.0000000000000000000 ) ) ;
#64 = SECURITY_CLASSIFICATION_LEVEL ( 'unclassified' ) ;
#65 = COORDINATED_UNIVERSAL_TIME_OFFSET ( 1, 0, .AHEAD. ) ;
#66 = ORIENTED_EDGE ( 'NONE', *, *, #28, .T. ) ;
#67 = AXIS2_PLACEMENT_3D ( 'NONE', #38, #190, #52 ) ;
#68 = CC_DESIGN_APPROVAL ( #161, ( #203 ) ) ;
#69 = EDGE_LOOP ( 'NONE', ( #188 ) ) ;
#70 = ADVANCED_FACE ( 'NONE', ( #136, #216 ), #233, .T. ) ;
#71 = CARTESIAN_POINT ( 'NONE',  ( 1.326762908760390423E-13, 8.998558695971053960E-33, 38.00000000000000000 ) ) ;
#72 = VERTEX_POINT ( 'NONE', #151 ) ;
#73 = CARTESIAN_POINT ( 'NONE',  ( 1.326762908760390423E-13, -4.653657836759941941E-15, 38.00000000000000000 ) ) ;
#74 = DIRECTION ( 'NONE',  ( -4.275831445896958607E-31, -1.000000000000000000, -1.224646799147353207E-16 ) ) ;
#75 = FACE_OUTER_BOUND ( 'NONE', #132, .T. ) ;
#76 = ORIENTED_EDGE ( 'NONE', *, *, #238, .F. ) ;
#77 = ORGANIZATION ( 'UNSPECIFIED', 'UNSPECIFIED', '' ) ;
#78 = DIRECTION ( 'NONE',  ( 0.0000000000000000000, -1.000000000000000000, 0.0000000000000000000 ) ) ;
#79 = CALENDAR_DATE ( 2021, 16, 11 ) ;
#80 = CC_DESIGN_PERSON_AND_ORGANIZATION_ASSIGNMENT ( #14, #60, ( #185 ) ) ;
#81 = CALENDAR_DATE ( 2021, 16, 11 ) ;
#82 = PERSON_AND_ORGANIZATION_ROLE ( 'creator' ) ;
#83 = APPROVAL_PERSON_ORGANIZATION ( #141, #226, #104 ) ;
#84 = COORDINATED_UNIVERSAL_TIME_OFFSET ( 1, 0, .AHEAD. ) ;
#85 = CALENDAR_DATE ( 2021, 16, 11 ) ;
#86 = CC_DESIGN_PERSON_AND_ORGANIZATION_ASSIGNMENT ( #163, #82, ( #167 ) ) ;
#87 = EDGE_LOOP ( 'NONE', ( #76 ) ) ;
#88 = AXIS2_PLACEMENT_3D ( 'NONE', #89, #5, #34 ) ;
#89 = CARTESIAN_POINT ( 'NONE',  ( 0.0000000000000000000, 0.0000000000000000000, 0.0000000000000000000 ) ) ;
#90 = CC_DESIGN_PERSON_AND_ORGANIZATION_ASSIGNMENT ( #119, #182, ( #203 ) ) ;
#91 = CARTESIAN_POINT ( 'NONE',  ( 8.379555213223516897E-15, -0.4750000000000006994, 2.399999999999999467 ) ) ;
#92 = MANIFOLD_SOLID_BREP ( 'Corps-Déplacer/Copier1[2]', #240 ) ;
#93 = AXIS2_PLACEMENT_3D ( 'NONE', #150, #192, #39 ) ;
#94 = PRODUCT_DEFINITION_FORMATION_WITH_SPECIFIED_SOURCE ( 'ANY', '', #185, .NOT_KNOWN. ) ;
#95 = CARTESIAN_POINT ( 'NONE',  ( 8.379555213223516897E-15, -2.926183046005023679E-16, 2.399999999999999467 ) ) ;
#96 = VERTEX_POINT ( 'NONE', #99 ) ;
#97 = PLANE ( 'NONE',  #123 ) ;
#98 = DIRECTION ( 'NONE',  ( -3.491481338843133355E-15, 1.224646799147353207E-16, -1.000000000000000000 ) ) ;
#99 = CARTESIAN_POINT ( 'NONE',  ( 1.316288464743861212E-13, 1.499999999999992228, 37.69999999999999574 ) ) ;
#100 = CLOSED_SHELL ( 'NONE', ( #15, #183, #108, #70, #200, #220 ) ) ;
#101 = EDGE_LOOP ( 'NONE', ( #128 ) ) ;
#102 = AXIS2_PLACEMENT_3D ( 'NONE', #71, #115, #171 ) ;
#103 = EDGE_CURVE ( 'NONE', #149, #149, #177, .T. ) ;
#104 = APPROVAL_ROLE ( '' ) ;
#105 = CONICAL_SURFACE ( 'NONE', #17, 1.199999999999996847, 0.7853981633974453924 ) ;
#106 = DATE_AND_TIME ( #25, #62 ) ;
#107 = DATE_AND_TIME ( #81, #224 ) ;
#108 = ADVANCED_FACE ( 'NONE', ( #118 ), #36, .F. ) ;
#109 = ORIENTED_EDGE ( 'NONE', *, *, #238, .T. ) ;
#110 = DIRECTION ( 'NONE',  ( 3.491481338843133355E-15, -1.219242935835426903E-16, 1.000000000000000000 ) ) ;
#111 = DIRECTION ( 'NONE',  ( 3.491481338843133355E-15, -1.219242935835426903E-16, 1.000000000000000000 ) ) ;
#112 = CARTESIAN_POINT ( 'NONE',  ( 0.0000000000000000000, 0.0000000000000000000, 0.0000000000000000000 ) ) ;
#113 = DIRECTION ( 'NONE',  ( -4.275831445896958607E-31, -1.000000000000000000, -1.224646799147353207E-16 ) ) ;
#114 = APPROVAL_PERSON_ORGANIZATION ( #223, #161, #26 ) ;
#115 = DIRECTION ( 'NONE',  ( -3.491481338843133355E-15, 1.224646799147353207E-16, -1.000000000000000000 ) ) ;
#116 = EDGE_LOOP ( 'NONE', ( #154 ) ) ;
#117 = CARTESIAN_POINT ( 'NONE',  ( 1.316288464743861212E-13, -4.616918432785521081E-15, 37.69999999999999574 ) ) ;
#118 = FACE_OUTER_BOUND ( 'NONE', #165, .T. ) ;
#119 = PERSON_AND_ORGANIZATION ( #33, #77 ) ;
#120 = PERSON_AND_ORGANIZATION_ROLE ( 'design_supplier' ) ;
#121 = CC_DESIGN_SECURITY_CLASSIFICATION ( #203, ( #94 ) ) ;
#122 = PERSON_AND_ORGANIZATION ( #33, #77 ) ;
#123 = AXIS2_PLACEMENT_3D ( 'NONE', #172, #196, #74 ) ;
#124 = CC_DESIGN_PERSON_AND_ORGANIZATION_ASSIGNMENT ( #13, #120, ( #94 ) ) ;
#125 = CC_DESIGN_DATE_AND_TIME_ASSIGNMENT ( #237, #222, ( #167 ) ) ;
#126 = CC_DESIGN_APPROVAL ( #48, ( #167 ) ) ;
#127 = ORIENTED_EDGE ( 'NONE', *, *, #137, .F. ) ;
#128 = ORIENTED_EDGE ( 'NONE', *, *, #137, .T. ) ;
#129 = CARTESIAN_POINT ( 'NONE',  ( 1.018687894544877643E-14, -0.5431483474218612439, 2.917638090205028512 ) ) ;
#130 = ORIENTED_EDGE ( 'NONE', *, *, #55, .T. ) ;
#131 = CARTESIAN_POINT ( 'NONE',  ( 1.326762908760390423E-13, 1.199999999999992406, 38.00000000000000000 ) ) ;
#132 = EDGE_LOOP ( 'NONE', ( #29 ) ) ;
#133 = AXIS2_PLACEMENT_3D ( 'NONE', #95, #53, #234 ) ;
#134 = AXIS2_PLACEMENT_3D ( 'NONE', #208, #111, #217 ) ;
#135 = DIRECTION ( 'NONE',  ( 4.275831445896958607E-31, 1.000000000000000000, 1.224646799147352961E-16 ) ) ;
#136 = FACE_BOUND ( 'NONE', #116, .T. ) ;
#137 = EDGE_CURVE ( 'NONE', #9, #9, #6, .T. ) ;
#138 = COORDINATED_UNIVERSAL_TIME_OFFSET ( 1, 0, .AHEAD. ) ;
#139 = AXIS2_PLACEMENT_3D ( 'NONE', #117, #194, #169 ) ;
#140 = APPROVAL_STATUS ( 'not_yet_approved' ) ;
#141 = PERSON_AND_ORGANIZATION ( #33, #77 ) ;
#142 = DATE_AND_TIME ( #79, #227 ) ;
#143 = PERSON_AND_ORGANIZATION_ROLE ( 'creator' ) ;
#144 = AXIS2_PLACEMENT_3D ( 'NONE', #112, #98, #135 ) ;
#145 = AXIS2_PLACEMENT_3D ( 'NONE', #35, #210, #113 ) ;
#146 = PRODUCT_RELATED_PRODUCT_CATEGORY ( 'detail', '', ( #185 ) ) ;
#147 = CARTESIAN_POINT ( 'NONE',  ( 2.265502508429793918E-14, -1.499999999999995559, 6.488657072932960013 ) ) ;
#148 = FACE_OUTER_BOUND ( 'NONE', #205, .T. ) ;
#149 = VERTEX_POINT ( 'NONE', #147 ) ;
#150 = CARTESIAN_POINT ( 'NONE',  ( 1.018687894544877643E-14, -3.557309630806847409E-16, 2.917638090205028512 ) ) ;
#151 = CARTESIAN_POINT ( 'NONE',  ( 8.379555213223516897E-15, -0.4750000000000006994, 2.399999999999999467 ) ) ;
#152 = FACE_OUTER_BOUND ( 'NONE', #242, .T. ) ;
#153 = AXIS2_PLACEMENT_3D ( 'NONE', #189, #232, #51 ) ;
#154 = ORIENTED_EDGE ( 'NONE', *, *, #7, .T. ) ;
#155 = VERTEX_POINT ( 'NONE', #91 ) ;
#156 = EDGE_LOOP ( 'NONE', ( #109 ) ) ;
#157 = APPROVAL_DATE_TIME ( #106, #226 ) ;
#158 = DATE_AND_TIME ( #85, #12 ) ;
#159 = LOCAL_TIME ( 16, 36, 9.000000000000000000, #65 ) ;
#160 = MECHANICAL_CONTEXT ( 'NONE', #176, 'mechanical' ) ;
#161 = APPROVAL ( #199, 'UNSPECIFIED' ) ;
#162 = COORDINATED_UNIVERSAL_TIME_OFFSET ( 1, 0, .AHEAD. ) ;
#163 = PERSON_AND_ORGANIZATION ( #33, #77 ) ;
#164 = ADVANCED_FACE ( 'NONE', ( #148 ), #97, .T. ) ;
#165 = EDGE_LOOP ( 'NONE', ( #127 ) ) ;
#166 = ORIENTED_EDGE ( 'NONE', *, *, #28, .F. ) ;
#167 = PRODUCT_DEFINITION ( 'UNKNOWN', '', #94, #179 ) ;
#168 = CYLINDRICAL_SURFACE ( 'NONE', #144, 1.499999999999994671 ) ;
#169 = DIRECTION ( 'NONE',  ( 0.0000000000000000000, 1.000000000000000000, 0.0000000000000000000 ) ) ;
#170 = AXIS2_PLACEMENT_3D ( 'NONE', #193, #110, #175 ) ;
#171 = DIRECTION ( 'NONE',  ( 4.275831445896958607E-31, 1.000000000000000000, 1.224646799147353207E-16 ) ) ;
#172 = CARTESIAN_POINT ( 'NONE',  ( 8.379555213223518475E-15, 1.124819836996387185E-32, 2.399999999999999911 ) ) ;
#173 = FACE_OUTER_BOUND ( 'NONE', #21, .T. ) ;
#174 = PRODUCT_DEFINITION_SHAPE ( 'NONE', 'NONE',  #167 ) ;
#175 = DIRECTION ( 'NONE',  ( -4.256963957985705386E-31, -1.000000000000000000, -1.219242935835426410E-16 ) ) ;
#176 = APPLICATION_CONTEXT ( 'configuration controlled 3d designs of mechanical parts and assemblies' ) ;
#177 = CIRCLE ( 'NONE', #181, 1.499999999999994671 ) ;
#178 = FACE_OUTER_BOUND ( 'NONE', #87, .T. ) ;
#179 = DESIGN_CONTEXT ( 'detailed design', #186, 'design' ) ;
#180 = MANIFOLD_SOLID_BREP ( 'Corps-Déplacer/Copier1[1]', #100 ) ;
#181 = AXIS2_PLACEMENT_3D ( 'NONE', #214, #41, #211 ) ;
#182 = PERSON_AND_ORGANIZATION_ROLE ( 'classification_officer' ) ;
#183 = ADVANCED_FACE ( 'NONE', ( #178, #43 ), #105, .T. ) ;
#184 = CALENDAR_DATE ( 2021, 16, 11 ) ;
#185 = PRODUCT ( '966069', '966069', '', ( #160 ) ) ;
#186 = APPLICATION_CONTEXT ( 'configuration controlled 3d designs of mechanical parts and assemblies' ) ;
#187 = ADVANCED_FACE ( 'NONE', ( #173 ), #229, .F. ) ;
#188 = ORIENTED_EDGE ( 'NONE', *, *, #103, .T. ) ;
#189 = CARTESIAN_POINT ( 'NONE',  ( 8.379555213223518475E-15, 1.124819836996387185E-32, 2.399999999999999911 ) ) ;
#190 = DIRECTION ( 'NONE',  ( 3.491481338843133355E-15, -1.219242935835426903E-16, 1.000000000000000000 ) ) ;
#191 = CC_DESIGN_APPROVAL ( #226, ( #94 ) ) ;
#192 = DIRECTION ( 'NONE',  ( 3.491481338843133355E-15, -1.219242935835426903E-16, 1.000000000000000000 ) ) ;
#193 = CARTESIAN_POINT ( 'NONE',  ( -1.698742875600592095E-30, 5.932096007029054953E-32, -4.865392968600121772E-16 ) ) ;
#194 = DIRECTION ( 'NONE',  ( -3.491481338843133355E-15, 1.224646799147353207E-16, -1.000000000000000000 ) ) ;
#195 = CC_DESIGN_DATE_AND_TIME_ASSIGNMENT ( #142, #198, ( #203 ) ) ;
#196 = DIRECTION ( 'NONE',  ( 3.491481338843133355E-15, -1.224646799147353207E-16, 1.000000000000000000 ) ) ;
#197 = APPROVAL_DATE_TIME ( #107, #48 ) ;
#198 = DATE_TIME_ROLE ( 'classification_date' ) ;
#199 = APPROVAL_STATUS ( 'not_yet_approved' ) ;
#200 = ADVANCED_FACE ( 'NONE', ( #215, #75 ), #206, .F. ) ;
#201 = APPROVAL_DATE_TIME ( #158, #161 ) ;
#202 = CIRCLE ( 'NONE', #93, 0.5431483474218609109 ) ;
#203 = SECURITY_CLASSIFICATION ( '', '', #64 ) ;
#204 = ORIENTED_EDGE ( 'NONE', *, *, #103, .F. ) ;
#205 = EDGE_LOOP ( 'NONE', ( #66 ) ) ;
#206 = TOROIDAL_SURFACE ( 'NONE', #134, 2.475000000000000977, 2.000000000000000000 ) ;
#207 = FACE_OUTER_BOUND ( 'NONE', #19, .T. ) ;
#208 = CARTESIAN_POINT ( 'NONE',  ( 8.379555213223516897E-15, -4.336808689942017736E-16, 2.399999999999999467 ) ) ;
#209 = DIRECTION ( 'NONE',  ( 3.491481338843133355E-15, -1.219242935835426903E-16, 1.000000000000000000 ) ) ;
#210 = DIRECTION ( 'NONE',  ( 3.491481338843133355E-15, -1.224646799147353207E-16, 1.000000000000000000 ) ) ;
#211 = DIRECTION ( 'NONE',  ( 0.0000000000000000000, -1.000000000000000000, 0.0000000000000000000 ) ) ;
#212 = VERTEX_POINT ( 'NONE', #59 ) ;
#213 = AXIS2_PLACEMENT_3D ( 'NONE', #56, #209, #78 ) ;
#214 = CARTESIAN_POINT ( 'NONE',  ( 2.265502508429793918E-14, -7.911249299232090497E-16, 6.488657072932960013 ) ) ;
#215 = FACE_OUTER_BOUND ( 'NONE', #3, .T. ) ;
#216 = FACE_OUTER_BOUND ( 'NONE', #69, .T. ) ;
#217 = DIRECTION ( 'NONE',  ( -4.316305397992992729E-31, -1.000000000000000000, -1.219242935835426903E-16 ) ) ;
#218 = CARTESIAN_POINT ( 'NONE',  ( 1.326762908760390423E-13, -4.653657836759941941E-15, 38.00000000000000000 ) ) ;
#219 = UNCERTAINTY_MEASURE_WITH_UNIT (LENGTH_MEASURE( 1.000000000000000082E-05 ), #37, 'distance_accuracy_value', 'NONE');
#220 = ADVANCED_FACE ( 'NONE', ( #57 ), #2, .F. ) ;
#221 = CC_DESIGN_PERSON_AND_ORGANIZATION_ASSIGNMENT ( #122, #143, ( #94 ) ) ;
#222 = DATE_TIME_ROLE ( 'creation_date' ) ;
#223 = PERSON_AND_ORGANIZATION ( #33, #77 ) ;
#224 = LOCAL_TIME ( 16, 36, 9.000000000000000000, #162 ) ;
#225 = COORDINATED_UNIVERSAL_TIME_OFFSET ( 1, 0, .AHEAD. ) ;
#226 = APPROVAL ( #239, 'UNSPECIFIED' ) ;
#227 = LOCAL_TIME ( 16, 36, 9.000000000000000000, #84 ) ;
#228 = ORIENTED_EDGE ( 'NONE', *, *, #16, .F. ) ;
#229 = PLANE ( 'NONE',  #145 ) ;
#230 = DIRECTION ( 'NONE',  ( -3.491481338843133355E-15, 1.224646799147353207E-16, -1.000000000000000000 ) ) ;
#231 = FACE_OUTER_BOUND ( 'NONE', #156, .T. ) ;
#232 = DIRECTION ( 'NONE',  ( 3.491481338843133355E-15, -1.224646799147353207E-16, 1.000000000000000000 ) ) ;
#233 = CONICAL_SURFACE ( 'NONE', #213, 2.499999999999995559, 0.2617993877991428575 ) ;
#234 = DIRECTION ( 'NONE',  ( 0.0000000000000000000, -1.000000000000000000, 0.0000000000000000000 ) ) ;
#235 = SHAPE_DEFINITION_REPRESENTATION ( #174, #241 ) ;
#236 = AXIS2_PLACEMENT_3D ( 'NONE', #27, #61, #63 ) ;
#237 = DATE_AND_TIME ( #184, #159 ) ;
#238 = EDGE_CURVE ( 'NONE', #96, #96, #46, .T. ) ;
#239 = APPROVAL_STATUS ( 'not_yet_approved' ) ;
#240 = CLOSED_SHELL ( 'NONE', ( #164, #40, #187 ) ) ;
#241 = ADVANCED_BREP_SHAPE_REPRESENTATION ( '966069', ( #180, #92, #236 ), #47 ) ;
#242 = EDGE_LOOP ( 'NONE', ( #204 ) ) ;
#243 = CIRCLE ( 'NONE', #133, 0.4750000000000004219 ) ;
ENDSEC;
END-ISO-10303-21;
