ISO-10303-21;
HEADER;
FILE_DESCRIPTION (( 'STEP AP203' ),
    '1' );
FILE_NAME ('966068.step',
    '2021-11-16T15:36:08',
    ( '' ),
    ( '' ),
    'SwSTEP 2.0',
    'SolidWorks 2019',
    '' );
FILE_SCHEMA (( 'CONFIG_CONTROL_DESIGN' ));
ENDSEC;

DATA;
#1 = CARTESIAN_POINT ( 'NONE',  ( 0.0000000000000000000, 0.0000000000000000000, 0.0000000000000000000 ) ) ;
#2 = CARTESIAN_POINT ( 'NONE',  ( 7.855833012397048472E-15, -2.743296605629709545E-16, 2.249999999999999556 ) ) ;
#3 = ADVANCED_FACE ( 'NONE', ( #213, #210 ), #209, .T. ) ;
#4 = CARTESIAN_POINT ( 'NONE',  ( 7.855833012397048472E-15, -4.336808689942017736E-16, 2.249999999999999556 ) ) ;
#5 = DIRECTION ( 'NONE',  ( -4.275831445896958607E-31, -1.000000000000000000, -1.224646799147353207E-16 ) ) ;
#6 = AXIS2_PLACEMENT_3D ( 'NONE', #9, #89, #5 ) ;
#7 = LOCAL_TIME ( 16, 36, 8.000000000000000000, #29 ) ;
#8 = UNCERTAINTY_MEASURE_WITH_UNIT (LENGTH_MEASURE( 1.000000000000000082E-05 ), #39, 'distance_accuracy_value', 'NONE');
#9 = CARTESIAN_POINT ( 'NONE',  ( -4.275811853558651348E-31, 1.499752910594655314E-32, -1.224641187678636516E-16 ) ) ;
#10 = CONICAL_SURFACE ( 'NONE', #40, 1.199999999999996847, 0.7853981633974453924 ) ;
#11 = APPROVAL_PERSON_ORGANIZATION ( #75, #174, #182 ) ;
#12 = PRODUCT ( '966068', '966068', '', ( #128 ) ) ;
#13 = APPROVAL_STATUS ( 'not_yet_approved' ) ;
#14 = ORIENTED_EDGE ( 'NONE', *, *, #133, .F. ) ;
#15 = CLOSED_SHELL ( 'NONE', ( #82, #113, #222 ) ) ;
#16 = COORDINATED_UNIVERSAL_TIME_OFFSET ( 1, 0, .AHEAD. ) ;
#17 = CARTESIAN_POINT ( 'NONE',  ( 9.663156744622306430E-15, -3.374423190431533275E-16, 2.767638090205028600 ) ) ;
#18 = CARTESIAN_POINT ( 'NONE',  ( -1.688100465705627357E-30, 5.894932173614439367E-32, -4.834911895204235262E-16 ) ) ;
#19 = AXIS2_PLACEMENT_3D ( 'NONE', #123, #186, #214 ) ;
#20 = PRODUCT_RELATED_PRODUCT_CATEGORY ( 'detail', '', ( #12 ) ) ;
#21 =( GEOMETRIC_REPRESENTATION_CONTEXT ( 3 ) GLOBAL_UNCERTAINTY_ASSIGNED_CONTEXT ( ( #8 ) ) GLOBAL_UNIT_ASSIGNED_CONTEXT ( ( #39, #154, #109 ) ) REPRESENTATION_CONTEXT ( 'NONE', 'WORKASPACE' ) );
#22 = FACE_OUTER_BOUND ( 'NONE', #162, .T. ) ;
#23 = DIRECTION ( 'NONE',  ( 3.491481338843133355E-15, -1.224646799147353207E-16, 1.000000000000000000 ) ) ;
#24 = CARTESIAN_POINT ( 'NONE',  ( 7.855833012397050049E-15, 1.124819836996387185E-32, 2.250000000000000000 ) ) ;
#25 = ADVANCED_FACE ( 'NONE', ( #101 ), #126, .F. ) ;
#26 = CARTESIAN_POINT ( 'NONE',  ( 7.855833012397048472E-15, -0.4500000000000000111, 2.249999999999999556 ) ) ;
#27 = PERSON_AND_ORGANIZATION ( #115, #110 ) ;
#28 = PRODUCT_DEFINITION_SHAPE ( 'NONE', 'NONE',  #90 ) ;
#29 = COORDINATED_UNIVERSAL_TIME_OFFSET ( 1, 0, .AHEAD. ) ;
#30 = ORIENTED_EDGE ( 'NONE', *, *, #94, .T. ) ;
#31 = APPROVAL_ROLE ( '' ) ;
#32 = PERSON_AND_ORGANIZATION ( #115, #110 ) ;
#33 = ADVANCED_FACE ( 'NONE', ( #34, #167 ), #235, .F. ) ;
#34 = FACE_OUTER_BOUND ( 'NONE', #139, .T. ) ;
#35 = CARTESIAN_POINT ( 'NONE',  ( 1.326762908760390423E-13, 8.998558695971053960E-33, 38.00000000000000000 ) ) ;
#36 = DIRECTION ( 'NONE',  ( -3.491481338843133355E-15, 1.219242935835426903E-16, -1.000000000000000000 ) ) ;
#37 = DIRECTION ( 'NONE',  ( 4.275831445896958607E-31, 1.000000000000000000, 1.224646799147352961E-16 ) ) ;
#38 = CARTESIAN_POINT ( 'NONE',  ( 3.548744827746905726E-14, -1.239239635674684396E-15, 10.16400915069116806 ) ) ;
#39 =( LENGTH_UNIT ( ) NAMED_UNIT ( * ) SI_UNIT ( .MILLI., .METRE. ) );
#40 = AXIS2_PLACEMENT_3D ( 'NONE', #140, #150, #111 ) ;
#41 = AXIS2_PLACEMENT_3D ( 'NONE', #24, #23, #66 ) ;
#42 = CARTESIAN_POINT ( 'NONE',  ( -1.879663843814984243E-30, -0.4499999999999999001, -5.383571216330177664E-16 ) ) ;
#43 = PERSON_AND_ORGANIZATION ( #115, #110 ) ;
#44 = AXIS2_PLACEMENT_3D ( 'NONE', #38, #83, #62 ) ;
#45 = MANIFOLD_SOLID_BREP ( 'Corps-Déplacer/Copier1[2]', #15 ) ;
#46 = ORIENTED_EDGE ( 'NONE', *, *, #188, .F. ) ;
#47 = ORIENTED_EDGE ( 'NONE', *, *, #146, .F. ) ;
#48 = APPROVAL ( #112, 'UNSPECIFIED' ) ;
#49 = FACE_OUTER_BOUND ( 'NONE', #100, .T. ) ;
#50 = CARTESIAN_POINT ( 'NONE',  ( 0.0000000000000000000, 0.0000000000000000000, 0.0000000000000000000 ) ) ;
#51 = DIRECTION ( 'NONE',  ( -4.256963957985710640E-31, -1.000000000000000000, -1.219242935835426903E-16 ) ) ;
#52 = DIRECTION ( 'NONE',  ( 3.491481338843133355E-15, -1.219242935835426903E-16, 1.000000000000000000 ) ) ;
#53 = FACE_BOUND ( 'NONE', #161, .T. ) ;
#54 = PERSON_AND_ORGANIZATION_ROLE ( 'design_owner' ) ;
#55 = EDGE_CURVE ( 'NONE', #173, #173, #175, .T. ) ;
#56 = EDGE_LOOP ( 'NONE', ( #119 ) ) ;
#57 = DATE_AND_TIME ( #240, #7 ) ;
#58 = APPROVAL ( #141, 'UNSPECIFIED' ) ;
#59 = DATE_AND_TIME ( #200, #212 ) ;
#60 = ORIENTED_EDGE ( 'NONE', *, *, #194, .T. ) ;
#61 = PERSON_AND_ORGANIZATION_ROLE ( 'creator' ) ;
#62 = DIRECTION ( 'NONE',  ( 0.0000000000000000000, -1.000000000000000000, 0.0000000000000000000 ) ) ;
#63 = COORDINATED_UNIVERSAL_TIME_OFFSET ( 1, 0, .AHEAD. ) ;
#64 = CC_DESIGN_SECURITY_CLASSIFICATION ( #190, ( #132 ) ) ;
#65 = DIRECTION ( 'NONE',  ( 0.0000000000000000000, -1.000000000000000000, 0.0000000000000000000 ) ) ;
#66 = DIRECTION ( 'NONE',  ( -4.275831445896958607E-31, -1.000000000000000000, -1.224646799147353207E-16 ) ) ;
#67 = AXIS2_PLACEMENT_3D ( 'NONE', #1, #81, #37 ) ;
#68 = DIRECTION ( 'NONE',  ( 0.0000000000000000000, -1.000000000000000000, 0.0000000000000000000 ) ) ;
#69 = VERTEX_POINT ( 'NONE', #88 ) ;
#70 = CARTESIAN_POINT ( 'NONE',  ( 9.663156744622306430E-15, -0.5181483474218605556, 2.767638090205028600 ) ) ;
#71 = PERSON_AND_ORGANIZATION ( #115, #110 ) ;
#72 = ADVANCED_BREP_SHAPE_REPRESENTATION ( '966068', ( #217, #45, #153 ), #21 ) ;
#73 = ORIENTED_EDGE ( 'NONE', *, *, #133, .T. ) ;
#74 = CC_DESIGN_PERSON_AND_ORGANIZATION_ASSIGNMENT ( #32, #242, ( #132 ) ) ;
#75 = PERSON_AND_ORGANIZATION ( #115, #110 ) ;
#76 = ORIENTED_EDGE ( 'NONE', *, *, #146, .T. ) ;
#77 = PERSON_AND_ORGANIZATION ( #115, #110 ) ;
#78 = LOCAL_TIME ( 16, 36, 8.000000000000000000, #63 ) ;
#79 = DATE_AND_TIME ( #185, #177 ) ;
#80 = EDGE_LOOP ( 'NONE', ( #160 ) ) ;
#81 = DIRECTION ( 'NONE',  ( -3.491481338843133355E-15, 1.224646799147353207E-16, -1.000000000000000000 ) ) ;
#82 = ADVANCED_FACE ( 'NONE', ( #145 ), #147, .T. ) ;
#83 = DIRECTION ( 'NONE',  ( 3.491481338843133355E-15, -1.219242935835426903E-16, 1.000000000000000000 ) ) ;
#84 = CARTESIAN_POINT ( 'NONE',  ( 7.855833012397048472E-15, -2.743296605629709545E-16, 2.249999999999999556 ) ) ;
#85 = CIRCLE ( 'NONE', #104, 1.499999999999996669 ) ;
#86 = CARTESIAN_POINT ( 'NONE',  ( 1.316288464743861212E-13, 1.499999999999992228, 37.69999999999999574 ) ) ;
#87 = CC_DESIGN_APPROVAL ( #58, ( #190 ) ) ;
#88 = CARTESIAN_POINT ( 'NONE',  ( 7.855833012397048472E-15, -0.4500000000000000111, 2.249999999999999556 ) ) ;
#89 = DIRECTION ( 'NONE',  ( 3.491481338843133355E-15, -1.224646799147353207E-16, 1.000000000000000000 ) ) ;
#90 = PRODUCT_DEFINITION ( 'UNKNOWN', '', #132, #93 ) ;
#91 = CIRCLE ( 'NONE', #152, 0.5181483474218602225 ) ;
#92 = APPROVAL_PERSON_ORGANIZATION ( #27, #58, #31 ) ;
#93 = DESIGN_CONTEXT ( 'detailed design', #178, 'design' ) ;
#94 = EDGE_CURVE ( 'NONE', #237, #237, #91, .T. ) ;
#95 = EDGE_LOOP ( 'NONE', ( #158 ) ) ;
#96 = APPROVAL_DATE_TIME ( #59, #174 ) ;
#97 = PERSON_AND_ORGANIZATION_ROLE ( 'design_supplier' ) ;
#98 = ADVANCED_FACE ( 'NONE', ( #166 ), #144, .F. ) ;
#99 = DATE_TIME_ROLE ( 'creation_date' ) ;
#100 = EDGE_LOOP ( 'NONE', ( #46 ) ) ;
#101 = FACE_OUTER_BOUND ( 'NONE', #204, .T. ) ;
#102 = CC_DESIGN_DATE_AND_TIME_ASSIGNMENT ( #180, #202, ( #190 ) ) ;
#103 = DIRECTION ( 'NONE',  ( 3.491481338843133355E-15, -1.219242935835426903E-16, 1.000000000000000000 ) ) ;
#104 = AXIS2_PLACEMENT_3D ( 'NONE', #127, #149, #231 ) ;
#105 = DIRECTION ( 'NONE',  ( 0.0000000000000000000, -1.000000000000000000, 0.0000000000000000000 ) ) ;
#106 = DIRECTION ( 'NONE',  ( 0.0000000000000000000, -1.000000000000000000, 0.0000000000000000000 ) ) ;
#107 = FACE_OUTER_BOUND ( 'NONE', #80, .T. ) ;
#108 = CONICAL_SURFACE ( 'NONE', #44, 2.499999999999995559, 0.2617993877991428575 ) ;
#109 =( NAMED_UNIT ( * ) SI_UNIT ( $, .STERADIAN. ) SOLID_ANGLE_UNIT ( ) );
#110 = ORGANIZATION ( 'UNSPECIFIED', 'UNSPECIFIED', '' ) ;
#111 = DIRECTION ( 'NONE',  ( 0.0000000000000000000, 1.000000000000000000, 0.0000000000000000000 ) ) ;
#112 = APPROVAL_STATUS ( 'not_yet_approved' ) ;
#113 = ADVANCED_FACE ( 'NONE', ( #169, #49 ), #243, .T. ) ;
#114 = EDGE_LOOP ( 'NONE', ( #60 ) ) ;
#115 = PERSON ( 'UNSPECIFIED', 'UNSPECIFIED', 'UNSPECIFIED', ('UNSPECIFIED'), ('UNSPECIFIED'), ('UNSPECIFIED') ) ;
#116 = EDGE_LOOP ( 'NONE', ( #73 ) ) ;
#117 = AXIS2_PLACEMENT_3D ( 'NONE', #4, #225, #192 ) ;
#118 = COORDINATED_UNIVERSAL_TIME_OFFSET ( 1, 0, .AHEAD. ) ;
#119 = ORIENTED_EDGE ( 'NONE', *, *, #94, .F. ) ;
#120 = COORDINATED_UNIVERSAL_TIME_OFFSET ( 1, 0, .AHEAD. ) ;
#121 = ORIENTED_EDGE ( 'NONE', *, *, #183, .T. ) ;
#122 = CARTESIAN_POINT ( 'NONE',  ( 2.245706252722752000E-14, -7.842119773439465652E-16, 6.431958343122188282 ) ) ;
#123 = CARTESIAN_POINT ( 'NONE',  ( 1.326762908760390423E-13, -4.653657836759941941E-15, 38.00000000000000000 ) ) ;
#124 = DIRECTION ( 'NONE',  ( 4.275831445896958607E-31, 1.000000000000000000, 1.224646799147353207E-16 ) ) ;
#125 = APPLICATION_PROTOCOL_DEFINITION ( 'international standard', 'config_control_design', 1994, #226 ) ;
#126 = PLANE ( 'NONE',  #131 ) ;
#127 = CARTESIAN_POINT ( 'NONE',  ( 1.316288464743861212E-13, -4.616918432785521081E-15, 37.69999999999999574 ) ) ;
#128 = MECHANICAL_CONTEXT ( 'NONE', #226, 'mechanical' ) ;
#129 = APPLICATION_PROTOCOL_DEFINITION ( 'international standard', 'config_control_design', 1994, #178 ) ;
#130 = FACE_OUTER_BOUND ( 'NONE', #221, .T. ) ;
#131 = AXIS2_PLACEMENT_3D ( 'NONE', #191, #170, #230 ) ;
#132 = PRODUCT_DEFINITION_FORMATION_WITH_SPECIFIED_SOURCE ( 'ANY', '', #12, .NOT_KNOWN. ) ;
#133 = EDGE_CURVE ( 'NONE', #236, #236, #148, .T. ) ;
#134 = EDGE_LOOP ( 'NONE', ( #239 ) ) ;
#135 = DATE_AND_TIME ( #201, #206 ) ;
#136 = EDGE_LOOP ( 'NONE', ( #47 ) ) ;
#137 = AXIS2_PLACEMENT_3D ( 'NONE', #122, #36, #105 ) ;
#138 = PERSON_AND_ORGANIZATION_ROLE ( 'classification_officer' ) ;
#139 = EDGE_LOOP ( 'NONE', ( #121 ) ) ;
#140 = CARTESIAN_POINT ( 'NONE',  ( 1.326762908760390423E-13, -4.653657836759941941E-15, 38.00000000000000000 ) ) ;
#141 = APPROVAL_STATUS ( 'not_yet_approved' ) ;
#142 = CC_DESIGN_DATE_AND_TIME_ASSIGNMENT ( #135, #99, ( #90 ) ) ;
#143 = CC_DESIGN_APPROVAL ( #174, ( #132 ) ) ;
#144 = PLANE ( 'NONE',  #218 ) ;
#145 = FACE_OUTER_BOUND ( 'NONE', #95, .T. ) ;
#146 = EDGE_CURVE ( 'NONE', #195, #195, #181, .T. ) ;
#147 = PLANE ( 'NONE',  #41 ) ;
#148 = CIRCLE ( 'NONE', #211, 0.4499999999999999001 ) ;
#149 = DIRECTION ( 'NONE',  ( -3.491481338843133355E-15, 1.224646799147353207E-16, -1.000000000000000000 ) ) ;
#150 = DIRECTION ( 'NONE',  ( -3.491481338843133355E-15, 1.224646799147353207E-16, -1.000000000000000000 ) ) ;
#151 = CC_DESIGN_PERSON_AND_ORGANIZATION_ASSIGNMENT ( #77, #138, ( #190 ) ) ;
#152 = AXIS2_PLACEMENT_3D ( 'NONE', #17, #227, #65 ) ;
#153 = AXIS2_PLACEMENT_3D ( 'NONE', #168, #232, #229 ) ;
#154 =( NAMED_UNIT ( * ) PLANE_ANGLE_UNIT ( ) SI_UNIT ( $, .RADIAN. ) );
#155 = CC_DESIGN_PERSON_AND_ORGANIZATION_ASSIGNMENT ( #43, #61, ( #90 ) ) ;
#156 = CARTESIAN_POINT ( 'NONE',  ( 1.326762908760390423E-13, 1.199999999999992406, 38.00000000000000000 ) ) ;
#157 = AXIS2_PLACEMENT_3D ( 'NONE', #2, #52, #106 ) ;
#158 = ORIENTED_EDGE ( 'NONE', *, *, #188, .T. ) ;
#159 = PERSON_AND_ORGANIZATION ( #115, #110 ) ;
#160 = ORIENTED_EDGE ( 'NONE', *, *, #194, .F. ) ;
#161 = EDGE_LOOP ( 'NONE', ( #30 ) ) ;
#162 = EDGE_LOOP ( 'NONE', ( #76 ) ) ;
#163 = APPROVAL_DATE_TIME ( #79, #58 ) ;
#164 = FACE_BOUND ( 'NONE', #199, .T. ) ;
#165 = APPROVAL_ROLE ( '' ) ;
#166 = FACE_OUTER_BOUND ( 'NONE', #134, .T. ) ;
#167 = FACE_OUTER_BOUND ( 'NONE', #56, .T. ) ;
#168 = CARTESIAN_POINT ( 'NONE',  ( 0.0000000000000000000, 0.0000000000000000000, 0.0000000000000000000 ) ) ;
#169 = FACE_OUTER_BOUND ( 'NONE', #116, .T. ) ;
#170 = DIRECTION ( 'NONE',  ( 3.491481338843133355E-15, -1.224646799147353207E-16, 1.000000000000000000 ) ) ;
#171 = CLOSED_SHELL ( 'NONE', ( #3, #203, #98, #176, #33, #25 ) ) ;
#172 = APPROVAL_PERSON_ORGANIZATION ( #71, #48, #165 ) ;
#173 = VERTEX_POINT ( 'NONE', #156 ) ;
#174 = APPROVAL ( #13, 'UNSPECIFIED' ) ;
#175 = CIRCLE ( 'NONE', #19, 1.199999999999996847 ) ;
#176 = ADVANCED_FACE ( 'NONE', ( #53, #22 ), #108, .T. ) ;
#177 = LOCAL_TIME ( 16, 36, 8.000000000000000000, #16 ) ;
#178 = APPLICATION_CONTEXT ( 'configuration controlled 3d designs of mechanical parts and assemblies' ) ;
#179 = SECURITY_CLASSIFICATION_LEVEL ( 'unclassified' ) ;
#180 = DATE_AND_TIME ( #223, #78 ) ;
#181 = CIRCLE ( 'NONE', #137, 1.499999999999994671 ) ;
#182 = APPROVAL_ROLE ( '' ) ;
#183 = EDGE_CURVE ( 'NONE', #197, #197, #205, .T. ) ;
#184 = ORIENTED_EDGE ( 'NONE', *, *, #55, .T. ) ;
#185 = CALENDAR_DATE ( 2021, 16, 11 ) ;
#186 = DIRECTION ( 'NONE',  ( -3.491481338843133355E-15, 1.224646799147353207E-16, -1.000000000000000000 ) ) ;
#187 = DIRECTION ( 'NONE',  ( -4.256963957985708889E-31, -1.000000000000000000, -1.219242935835426656E-16 ) ) ;
#188 = EDGE_CURVE ( 'NONE', #69, #69, #189, .T. ) ;
#189 = CIRCLE ( 'NONE', #220, 0.4499999999999997335 ) ;
#190 = SECURITY_CLASSIFICATION ( '', '', #179 ) ;
#191 = CARTESIAN_POINT ( 'NONE',  ( 7.855833012397050049E-15, 1.124819836996387185E-32, 2.250000000000000000 ) ) ;
#192 = DIRECTION ( 'NONE',  ( -4.316638776869437357E-31, -1.000000000000000000, -1.219242935835426903E-16 ) ) ;
#193 = CC_DESIGN_APPROVAL ( #48, ( #90 ) ) ;
#194 = EDGE_CURVE ( 'NONE', #234, #234, #85, .T. ) ;
#195 = VERTEX_POINT ( 'NONE', #215 ) ;
#196 = AXIS2_PLACEMENT_3D ( 'NONE', #50, #103, #187 ) ;
#197 = VERTEX_POINT ( 'NONE', #26 ) ;
#198 = CC_DESIGN_PERSON_AND_ORGANIZATION_ASSIGNMENT ( #159, #97, ( #132 ) ) ;
#199 = EDGE_LOOP ( 'NONE', ( #184 ) ) ;
#200 = CALENDAR_DATE ( 2021, 16, 11 ) ;
#201 = CALENDAR_DATE ( 2021, 16, 11 ) ;
#202 = DATE_TIME_ROLE ( 'classification_date' ) ;
#203 = ADVANCED_FACE ( 'NONE', ( #107, #164 ), #10, .T. ) ;
#204 = EDGE_LOOP ( 'NONE', ( #224 ) ) ;
#205 = CIRCLE ( 'NONE', #157, 0.4499999999999997335 ) ;
#206 = LOCAL_TIME ( 16, 36, 8.000000000000000000, #120 ) ;
#207 = APPROVAL_DATE_TIME ( #57, #48 ) ;
#208 = DIRECTION ( 'NONE',  ( -3.491481338843133355E-15, 1.224646799147353207E-16, -1.000000000000000000 ) ) ;
#209 = CYLINDRICAL_SURFACE ( 'NONE', #67, 1.499999999999994671 ) ;
#210 = FACE_OUTER_BOUND ( 'NONE', #136, .T. ) ;
#211 = AXIS2_PLACEMENT_3D ( 'NONE', #18, #228, #51 ) ;
#212 = LOCAL_TIME ( 16, 36, 8.000000000000000000, #118 ) ;
#213 = FACE_OUTER_BOUND ( 'NONE', #114, .T. ) ;
#214 = DIRECTION ( 'NONE',  ( 0.0000000000000000000, 1.000000000000000000, 0.0000000000000000000 ) ) ;
#215 = CARTESIAN_POINT ( 'NONE',  ( 2.245706252722752000E-14, -1.499999999999995559, 6.431958343122188282 ) ) ;
#216 = PLANE ( 'NONE',  #6 ) ;
#217 = MANIFOLD_SOLID_BREP ( 'Corps-Déplacer/Copier1[1]', #171 ) ;
#218 = AXIS2_PLACEMENT_3D ( 'NONE', #35, #208, #124 ) ;
#219 = CC_DESIGN_PERSON_AND_ORGANIZATION_ASSIGNMENT ( #233, #54, ( #12 ) ) ;
#220 = AXIS2_PLACEMENT_3D ( 'NONE', #84, #241, #68 ) ;
#221 = EDGE_LOOP ( 'NONE', ( #14 ) ) ;
#222 = ADVANCED_FACE ( 'NONE', ( #130 ), #216, .F. ) ;
#223 = CALENDAR_DATE ( 2021, 16, 11 ) ;
#224 = ORIENTED_EDGE ( 'NONE', *, *, #183, .F. ) ;
#225 = DIRECTION ( 'NONE',  ( 3.491481338843133355E-15, -1.219242935835426903E-16, 1.000000000000000000 ) ) ;
#226 = APPLICATION_CONTEXT ( 'configuration controlled 3d designs of mechanical parts and assemblies' ) ;
#227 = DIRECTION ( 'NONE',  ( 3.491481338843133355E-15, -1.219242935835426903E-16, 1.000000000000000000 ) ) ;
#228 = DIRECTION ( 'NONE',  ( 3.491481338843133355E-15, -1.219242935835426903E-16, 1.000000000000000000 ) ) ;
#229 = DIRECTION ( 'NONE',  ( 1.000000000000000000, 0.0000000000000000000, 0.0000000000000000000 ) ) ;
#230 = DIRECTION ( 'NONE',  ( -4.275831445896958607E-31, -1.000000000000000000, -1.224646799147353207E-16 ) ) ;
#231 = DIRECTION ( 'NONE',  ( 0.0000000000000000000, 1.000000000000000000, 0.0000000000000000000 ) ) ;
#232 = DIRECTION ( 'NONE',  ( 0.0000000000000000000, 0.0000000000000000000, 1.000000000000000000 ) ) ;
#233 = PERSON_AND_ORGANIZATION ( #115, #110 ) ;
#234 = VERTEX_POINT ( 'NONE', #86 ) ;
#235 = TOROIDAL_SURFACE ( 'NONE', #117, 2.450000000000000178, 2.000000000000000000 ) ;
#236 = VERTEX_POINT ( 'NONE', #42 ) ;
#237 = VERTEX_POINT ( 'NONE', #70 ) ;
#238 = SHAPE_DEFINITION_REPRESENTATION ( #28, #72 ) ;
#239 = ORIENTED_EDGE ( 'NONE', *, *, #55, .F. ) ;
#240 = CALENDAR_DATE ( 2021, 16, 11 ) ;
#241 = DIRECTION ( 'NONE',  ( 3.491481338843133355E-15, -1.219242935835426903E-16, 1.000000000000000000 ) ) ;
#242 = PERSON_AND_ORGANIZATION_ROLE ( 'creator' ) ;
#243 = CYLINDRICAL_SURFACE ( 'NONE', #196, 0.4499999999999997891 ) ;
ENDSEC;
END-ISO-10303-21;
