ISO-10303-21;
HEADER;
FILE_DESCRIPTION (( 'STEP AP203' ),
    '1' );
FILE_NAME ('966067.step',
    '2021-11-16T15:36:08',
    ( '' ),
    ( '' ),
    'SwSTEP 2.0',
    'SolidWorks 2019',
    '' );
FILE_SCHEMA (( 'CONFIG_CONTROL_DESIGN' ));
ENDSEC;

DATA;
#1 = EDGE_CURVE ( 'NONE', #221, #221, #243, .T. ) ;
#2 = CALENDAR_DATE ( 2021, 16, 11 ) ;
#3 = AXIS2_PLACEMENT_3D ( 'NONE', #117, #139, #73 ) ;
#4 = CLOSED_SHELL ( 'NONE', ( #16, #103, #63, #228, #6, #93 ) ) ;
#5 = ORIENTED_EDGE ( 'NONE', *, *, #1, .T. ) ;
#6 = ADVANCED_FACE ( 'NONE', ( #23, #206 ), #100, .F. ) ;
#7 = EDGE_LOOP ( 'NONE', ( #79 ) ) ;
#8 = FACE_OUTER_BOUND ( 'NONE', #107, .T. ) ;
#9 = CARTESIAN_POINT ( 'NONE',  ( -4.275811853558651348E-31, 1.499752910594655314E-32, -1.224641187678636516E-16 ) ) ;
#10 = APPROVAL_STATUS ( 'not_yet_approved' ) ;
#11 = DIRECTION ( 'NONE',  ( 3.491481338843133355E-15, -1.224646799147353207E-16, 1.000000000000000000 ) ) ;
#12 = FACE_OUTER_BOUND ( 'NONE', #164, .T. ) ;
#13 = CIRCLE ( 'NONE', #183, 0.4250000000000000444 ) ;
#14 = VERTEX_POINT ( 'NONE', #171 ) ;
#15 = CARTESIAN_POINT ( 'NONE',  ( 7.506684878512735136E-15, -0.4250000000000001554, 2.149999999999999467 ) ) ;
#16 = ADVANCED_FACE ( 'NONE', ( #8, #24 ), #87, .T. ) ;
#17 = APPROVAL_ROLE ( '' ) ;
#18 = COORDINATED_UNIVERSAL_TIME_OFFSET ( 1, 0, .AHEAD. ) ;
#19 = AXIS2_PLACEMENT_3D ( 'NONE', #177, #172, #134 ) ;
#20 = COORDINATED_UNIVERSAL_TIME_OFFSET ( 1, 0, .AHEAD. ) ;
#21 = DIRECTION ( 'NONE',  ( 3.491481338843133355E-15, -1.219242935835426903E-16, 1.000000000000000000 ) ) ;
#22 = APPROVAL ( #232, 'UNSPECIFIED' ) ;
#23 = FACE_OUTER_BOUND ( 'NONE', #58, .T. ) ;
#24 = FACE_OUTER_BOUND ( 'NONE', #129, .T. ) ;
#25 = DATE_TIME_ROLE ( 'classification_date' ) ;
#26 = EDGE_LOOP ( 'NONE', ( #92 ) ) ;
#27 = CC_DESIGN_APPROVAL ( #154, ( #230 ) ) ;
#28 = CARTESIAN_POINT ( 'NONE',  ( 7.506684878512735136E-15, -0.4250000000000001554, 2.149999999999999467 ) ) ;
#29 = PLANE ( 'NONE',  #35 ) ;
#30 = VERTEX_POINT ( 'NONE', #47 ) ;
#31 = PERSON_AND_ORGANIZATION_ROLE ( 'classification_officer' ) ;
#32 = DIRECTION ( 'NONE',  ( 0.0000000000000000000, -1.000000000000000000, 0.0000000000000000000 ) ) ;
#33 = DIRECTION ( 'NONE',  ( 3.491481338843133355E-15, -1.219242935835426903E-16, 1.000000000000000000 ) ) ;
#34 = EDGE_CURVE ( 'NONE', #133, #133, #131, .T. ) ;
#35 = AXIS2_PLACEMENT_3D ( 'NONE', #76, #11, #237 ) ;
#36 = ADVANCED_FACE ( 'NONE', ( #182 ), #185, .F. ) ;
#37 = DATE_AND_TIME ( #106, #224 ) ;
#38 = EDGE_CURVE ( 'NONE', #14, #14, #229, .T. ) ;
#39 = DIRECTION ( 'NONE',  ( -3.491481338843133355E-15, 1.224646799147353207E-16, -1.000000000000000000 ) ) ;
#40 = ORIENTED_EDGE ( 'NONE', *, *, #42, .F. ) ;
#41 = ORIENTED_EDGE ( 'NONE', *, *, #52, .F. ) ;
#42 = EDGE_CURVE ( 'NONE', #44, #44, #217, .T. ) ;
#43 = APPROVAL_ROLE ( '' ) ;
#44 = VERTEX_POINT ( 'NONE', #28 ) ;
#45 = MANIFOLD_SOLID_BREP ( 'Corps-Déplacer/Copier1[1]', #4 ) ;
#46 = CARTESIAN_POINT ( 'NONE',  ( 1.326762908760390423E-13, -4.653657836759941941E-15, 38.00000000000000000 ) ) ;
#47 = CARTESIAN_POINT ( 'NONE',  ( 1.326762908760390423E-13, 1.199999999999992406, 38.00000000000000000 ) ) ;
#48 = FACE_OUTER_BOUND ( 'NONE', #26, .T. ) ;
#49 = CARTESIAN_POINT ( 'NONE',  ( 7.506684878512736714E-15, 1.124819836996387185E-32, 2.149999999999999911 ) ) ;
#50 = PERSON_AND_ORGANIZATION ( #226, #195 ) ;
#51 = ORIENTED_EDGE ( 'NONE', *, *, #38, .F. ) ;
#52 = EDGE_CURVE ( 'NONE', #96, #96, #13, .T. ) ;
#53 = PRODUCT ( '966067', '966067', '', ( #231 ) ) ;
#54 = CARTESIAN_POINT ( 'NONE',  ( 0.0000000000000000000, 0.0000000000000000000, 0.0000000000000000000 ) ) ;
#55 = CALENDAR_DATE ( 2021, 16, 11 ) ;
#56 = AXIS2_PLACEMENT_3D ( 'NONE', #191, #198, #214 ) ;
#57 = CC_DESIGN_SECURITY_CLASSIFICATION ( #84, ( #230 ) ) ;
#58 = EDGE_LOOP ( 'NONE', ( #147 ) ) ;
#59 = DIRECTION ( 'NONE',  ( 3.491481338843133355E-15, -1.219242935835426903E-16, 1.000000000000000000 ) ) ;
#60 = AXIS2_PLACEMENT_3D ( 'NONE', #208, #59, #110 ) ;
#61 = APPLICATION_CONTEXT ( 'configuration controlled 3d designs of mechanical parts and assemblies' ) ;
#62 = EDGE_LOOP ( 'NONE', ( #205 ) ) ;
#63 = ADVANCED_FACE ( 'NONE', ( #225 ), #98, .F. ) ;
#64 = EDGE_LOOP ( 'NONE', ( #130 ) ) ;
#65 = UNCERTAINTY_MEASURE_WITH_UNIT (LENGTH_MEASURE( 1.000000000000000082E-05 ), #142, 'distance_accuracy_value', 'NONE');
#66 = FACE_OUTER_BOUND ( 'NONE', #149, .T. ) ;
#67 = PERSON_AND_ORGANIZATION ( #226, #195 ) ;
#68 = AXIS2_PLACEMENT_3D ( 'NONE', #240, #115, #151 ) ;
#69 = CC_DESIGN_PERSON_AND_ORGANIZATION_ASSIGNMENT ( #239, #31, ( #84 ) ) ;
#70 = CARTESIAN_POINT ( 'NONE',  ( 7.506684878512735136E-15, -2.621372312046167446E-16, 2.149999999999999467 ) ) ;
#71 = CC_DESIGN_APPROVAL ( #146, ( #84 ) ) ;
#72 = CALENDAR_DATE ( 2021, 16, 11 ) ;
#73 = DIRECTION ( 'NONE',  ( 0.0000000000000000000, -1.000000000000000000, 0.0000000000000000000 ) ) ;
#74 = CARTESIAN_POINT ( 'NONE',  ( 1.326762908760390423E-13, -4.653657836759941941E-15, 38.00000000000000000 ) ) ;
#75 = DATE_AND_TIME ( #72, #167 ) ;
#76 = CARTESIAN_POINT ( 'NONE',  ( 7.506684878512736714E-15, 1.124819836996387185E-32, 2.149999999999999911 ) ) ;
#77 = APPLICATION_PROTOCOL_DEFINITION ( 'international standard', 'config_control_design', 1994, #176 ) ;
#78 =( NAMED_UNIT ( * ) PLANE_ANGLE_UNIT ( ) SI_UNIT ( $, .RADIAN. ) );
#79 = ORIENTED_EDGE ( 'NONE', *, *, #52, .T. ) ;
#80 = DIRECTION ( 'NONE',  ( 1.000000000000000000, 0.0000000000000000000, 0.0000000000000000000 ) ) ;
#81 = EDGE_CURVE ( 'NONE', #174, #174, #120, .T. ) ;
#82 = APPLICATION_PROTOCOL_DEFINITION ( 'international standard', 'config_control_design', 1994, #61 ) ;
#83 = AXIS2_PLACEMENT_3D ( 'NONE', #166, #21, #111 ) ;
#84 = SECURITY_CLASSIFICATION ( '', '', #188 ) ;
#85 = ORIENTED_EDGE ( 'NONE', *, *, #81, .F. ) ;
#86 = APPROVAL_DATE_TIME ( #161, #154 ) ;
#87 = CYLINDRICAL_SURFACE ( 'NONE', #233, 1.499999999999994671 ) ;
#88 = AXIS2_PLACEMENT_3D ( 'NONE', #70, #33, #32 ) ;
#89 = APPROVAL_PERSON_ORGANIZATION ( #143, #22, #125 ) ;
#90 = DIRECTION ( 'NONE',  ( 3.491481338843133355E-15, -1.224646799147353207E-16, 1.000000000000000000 ) ) ;
#91 = CALENDAR_DATE ( 2021, 16, 11 ) ;
#92 = ORIENTED_EDGE ( 'NONE', *, *, #81, .T. ) ;
#93 = ADVANCED_FACE ( 'NONE', ( #12 ), #29, .F. ) ;
#94 = COORDINATED_UNIVERSAL_TIME_OFFSET ( 1, 0, .AHEAD. ) ;
#95 = CARTESIAN_POINT ( 'NONE',  ( 1.326762908760390423E-13, 8.998558695971053960E-33, 38.00000000000000000 ) ) ;
#96 = VERTEX_POINT ( 'NONE', #212 ) ;
#97 = COORDINATED_UNIVERSAL_TIME_OFFSET ( 1, 0, .AHEAD. ) ;
#98 = PLANE ( 'NONE',  #220 ) ;
#99 = CARTESIAN_POINT ( 'NONE',  ( 1.316288464743861212E-13, 1.499999999999992228, 37.69999999999999574 ) ) ;
#100 = TOROIDAL_SURFACE ( 'NONE', #60, 2.425000000000000711, 2.000000000000000000 ) ;
#101 = CC_DESIGN_APPROVAL ( #22, ( #215 ) ) ;
#102 = COORDINATED_UNIVERSAL_TIME_OFFSET ( 1, 0, .AHEAD. ) ;
#103 = ADVANCED_FACE ( 'NONE', ( #66, #158 ), #187, .T. ) ;
#104 = DIRECTION ( 'NONE',  ( 0.0000000000000000000, 0.0000000000000000000, 1.000000000000000000 ) ) ;
#105 = AXIS2_PLACEMENT_3D ( 'NONE', #9, #90, #116 ) ;
#106 = CALENDAR_DATE ( 2021, 16, 11 ) ;
#107 = EDGE_LOOP ( 'NONE', ( #5 ) ) ;
#108 = ORIENTED_EDGE ( 'NONE', *, *, #34, .F. ) ;
#109 = EDGE_LOOP ( 'NONE', ( #165 ) ) ;
#110 = DIRECTION ( 'NONE',  ( -4.316975922738838061E-31, -1.000000000000000000, -1.219242935835426903E-16 ) ) ;
#111 = DIRECTION ( 'NONE',  ( 0.0000000000000000000, -1.000000000000000000, 0.0000000000000000000 ) ) ;
#112 = LOCAL_TIME ( 16, 36, 8.000000000000000000, #102 ) ;
#113 = EDGE_LOOP ( 'NONE', ( #41 ) ) ;
#114 = DIRECTION ( 'NONE',  ( 3.491481338843133355E-15, -1.224646799147353207E-16, 1.000000000000000000 ) ) ;
#115 = DIRECTION ( 'NONE',  ( 3.491481338843133355E-15, -1.219242935835426903E-16, 1.000000000000000000 ) ) ;
#116 = DIRECTION ( 'NONE',  ( -4.275831445896958607E-31, -1.000000000000000000, -1.224646799147353207E-16 ) ) ;
#117 = CARTESIAN_POINT ( 'NONE',  ( 2.243367403709924486E-14, -7.833952394438606927E-16, 6.425259613311412821 ) ) ;
#118 = DIRECTION ( 'NONE',  ( 0.0000000000000000000, 1.000000000000000000, 0.0000000000000000000 ) ) ;
#119 = PERSON_AND_ORGANIZATION_ROLE ( 'creator' ) ;
#120 = CIRCLE ( 'NONE', #3, 1.499999999999994671 ) ;
#121 = EDGE_LOOP ( 'NONE', ( #145 ) ) ;
#122 = CC_DESIGN_PERSON_AND_ORGANIZATION_ASSIGNMENT ( #190, #236, ( #230 ) ) ;
#123 = EDGE_LOOP ( 'NONE', ( #51 ) ) ;
#124 = PERSON_AND_ORGANIZATION ( #226, #195 ) ;
#125 = APPROVAL_ROLE ( '' ) ;
#126 =( NAMED_UNIT ( * ) SI_UNIT ( $, .STERADIAN. ) SOLID_ANGLE_UNIT ( ) );
#127 = DIRECTION ( 'NONE',  ( 4.275831445896958607E-31, 1.000000000000000000, 1.224646799147352961E-16 ) ) ;
#128 = PERSON_AND_ORGANIZATION ( #226, #195 ) ;
#129 = EDGE_LOOP ( 'NONE', ( #85 ) ) ;
#130 = ORIENTED_EDGE ( 'NONE', *, *, #200, .T. ) ;
#131 = CIRCLE ( 'NONE', #83, 0.4249999999999998779 ) ;
#132 = AXIS2_PLACEMENT_3D ( 'NONE', #54, #104, #80 ) ;
#133 = VERTEX_POINT ( 'NONE', #15 ) ;
#134 = DIRECTION ( 'NONE',  ( 0.0000000000000000000, -1.000000000000000000, 0.0000000000000000000 ) ) ;
#135 = MANIFOLD_SOLID_BREP ( 'Corps-Déplacer/Copier1[2]', #181 ) ;
#136 = SHAPE_DEFINITION_REPRESENTATION ( #227, #202 ) ;
#137 = DIRECTION ( 'NONE',  ( -4.256963957985707137E-31, -1.000000000000000000, -1.219242935835427396E-16 ) ) ;
#138 = CYLINDRICAL_SURFACE ( 'NONE', #68, 0.4249999999999999334 ) ;
#139 = DIRECTION ( 'NONE',  ( -3.491481338843133355E-15, 1.219242935835426903E-16, -1.000000000000000000 ) ) ;
#140 = PERSON_AND_ORGANIZATION ( #226, #195 ) ;
#141 = ADVANCED_FACE ( 'NONE', ( #196, #235 ), #138, .T. ) ;
#142 =( LENGTH_UNIT ( ) NAMED_UNIT ( * ) SI_UNIT ( .MILLI., .METRE. ) );
#143 = PERSON_AND_ORGANIZATION ( #226, #195 ) ;
#144 = AXIS2_PLACEMENT_3D ( 'NONE', #46, #175, #155 ) ;
#145 = ORIENTED_EDGE ( 'NONE', *, *, #42, .T. ) ;
#146 = APPROVAL ( #10, 'UNSPECIFIED' ) ;
#147 = ORIENTED_EDGE ( 'NONE', *, *, #34, .T. ) ;
#148 = AXIS2_PLACEMENT_3D ( 'NONE', #74, #219, #118 ) ;
#149 = EDGE_LOOP ( 'NONE', ( #234 ) ) ;
#150 = DESIGN_CONTEXT ( 'detailed design', #61, 'design' ) ;
#151 = DIRECTION ( 'NONE',  ( -4.256963957985708889E-31, -1.000000000000000000, -1.219242935835426903E-16 ) ) ;
#152 = PLANE ( 'NONE',  #223 ) ;
#153 = CARTESIAN_POINT ( 'NONE',  ( 2.243367403709924486E-14, -1.499999999999995559, 6.425259613311412821 ) ) ;
#154 = APPROVAL ( #199, 'UNSPECIFIED' ) ;
#155 = DIRECTION ( 'NONE',  ( 0.0000000000000000000, 1.000000000000000000, 0.0000000000000000000 ) ) ;
#156 = APPROVAL_DATE_TIME ( #75, #146 ) ;
#157 = APPROVAL_PERSON_ORGANIZATION ( #50, #154, #17 ) ;
#158 = FACE_BOUND ( 'NONE', #64, .T. ) ;
#159 = CC_DESIGN_PERSON_AND_ORGANIZATION_ASSIGNMENT ( #140, #119, ( #215 ) ) ;
#160 = APPROVAL_DATE_TIME ( #203, #22 ) ;
#161 = DATE_AND_TIME ( #2, #112 ) ;
#162 = AXIS2_PLACEMENT_3D ( 'NONE', #189, #39, #207 ) ;
#163 = CC_DESIGN_PERSON_AND_ORGANIZATION_ASSIGNMENT ( #128, #241, ( #230 ) ) ;
#164 = EDGE_LOOP ( 'NONE', ( #108 ) ) ;
#165 = ORIENTED_EDGE ( 'NONE', *, *, #200, .F. ) ;
#166 = CARTESIAN_POINT ( 'NONE',  ( 7.506684878512735136E-15, -2.621372312046167446E-16, 2.149999999999999467 ) ) ;
#167 = LOCAL_TIME ( 16, 36, 8.000000000000000000, #94 ) ;
#168 = CARTESIAN_POINT ( 'NONE',  ( 0.0000000000000000000, 0.0000000000000000000, 0.0000000000000000000 ) ) ;
#169 = PRODUCT_RELATED_PRODUCT_CATEGORY ( 'detail', '', ( #53 ) ) ;
#170 = DATE_AND_TIME ( #91, #184 ) ;
#171 = CARTESIAN_POINT ( 'NONE',  ( 9.314008610737993095E-15, -0.4931483474218606999, 2.667638090205028512 ) ) ;
#172 = DIRECTION ( 'NONE',  ( 3.491481338843133355E-15, -1.219242935835426903E-16, 1.000000000000000000 ) ) ;
#173 = ADVANCED_FACE ( 'NONE', ( #222 ), #152, .T. ) ;
#174 = VERTEX_POINT ( 'NONE', #153 ) ;
#175 = DIRECTION ( 'NONE',  ( -3.491481338843133355E-15, 1.224646799147353207E-16, -1.000000000000000000 ) ) ;
#176 = APPLICATION_CONTEXT ( 'configuration controlled 3d designs of mechanical parts and assemblies' ) ;
#177 = CARTESIAN_POINT ( 'NONE',  ( 9.314008610737993095E-15, -3.252498896847990683E-16, 2.667638090205028512 ) ) ;
#178 = CONICAL_SURFACE ( 'NONE', #56, 2.499999999999995559, 0.2617993877991428575 ) ;
#179 = LOCAL_TIME ( 16, 36, 8.000000000000000000, #18 ) ;
#180 = DATE_TIME_ROLE ( 'creation_date' ) ;
#181 = CLOSED_SHELL ( 'NONE', ( #173, #141, #36 ) ) ;
#182 = FACE_OUTER_BOUND ( 'NONE', #113, .T. ) ;
#183 = AXIS2_PLACEMENT_3D ( 'NONE', #242, #210, #137 ) ;
#184 = LOCAL_TIME ( 16, 36, 8.000000000000000000, #97 ) ;
#185 = PLANE ( 'NONE',  #105 ) ;
#186 = CC_DESIGN_PERSON_AND_ORGANIZATION_ASSIGNMENT ( #124, #201, ( #53 ) ) ;
#187 = CONICAL_SURFACE ( 'NONE', #144, 1.199999999999996847, 0.7853981633974453924 ) ;
#188 = SECURITY_CLASSIFICATION_LEVEL ( 'unclassified' ) ;
#189 = CARTESIAN_POINT ( 'NONE',  ( 1.316288464743861212E-13, -4.616918432785521081E-15, 37.69999999999999574 ) ) ;
#190 = PERSON_AND_ORGANIZATION ( #226, #195 ) ;
#191 = CARTESIAN_POINT ( 'NONE',  ( 3.546405978734078528E-14, -1.238422897774598524E-15, 10.15731042088039260 ) ) ;
#192 = CC_DESIGN_DATE_AND_TIME_ASSIGNMENT ( #170, #25, ( #84 ) ) ;
#193 = FACE_BOUND ( 'NONE', #62, .T. ) ;
#194 = CIRCLE ( 'NONE', #148, 1.199999999999996847 ) ;
#195 = ORGANIZATION ( 'UNSPECIFIED', 'UNSPECIFIED', '' ) ;
#196 = FACE_OUTER_BOUND ( 'NONE', #7, .T. ) ;
#197 = DIRECTION ( 'NONE',  ( -3.491481338843133355E-15, 1.224646799147353207E-16, -1.000000000000000000 ) ) ;
#198 = DIRECTION ( 'NONE',  ( 3.491481338843133355E-15, -1.219242935835426903E-16, 1.000000000000000000 ) ) ;
#199 = APPROVAL_STATUS ( 'not_yet_approved' ) ;
#200 = EDGE_CURVE ( 'NONE', #30, #30, #194, .T. ) ;
#201 = PERSON_AND_ORGANIZATION_ROLE ( 'design_owner' ) ;
#202 = ADVANCED_BREP_SHAPE_REPRESENTATION ( '966067', ( #45, #135, #132 ), #204 ) ;
#203 = DATE_AND_TIME ( #55, #179 ) ;
#204 =( GEOMETRIC_REPRESENTATION_CONTEXT ( 3 ) GLOBAL_UNCERTAINTY_ASSIGNED_CONTEXT ( ( #65 ) ) GLOBAL_UNIT_ASSIGNED_CONTEXT ( ( #142, #78, #126 ) ) REPRESENTATION_CONTEXT ( 'NONE', 'WORKASPACE' ) );
#205 = ORIENTED_EDGE ( 'NONE', *, *, #38, .T. ) ;
#206 = FACE_OUTER_BOUND ( 'NONE', #123, .T. ) ;
#207 = DIRECTION ( 'NONE',  ( 0.0000000000000000000, 1.000000000000000000, 0.0000000000000000000 ) ) ;
#208 = CARTESIAN_POINT ( 'NONE',  ( 7.506684878512735136E-15, -4.336808689942017736E-16, 2.149999999999999467 ) ) ;
#209 = EDGE_LOOP ( 'NONE', ( #40 ) ) ;
#210 = DIRECTION ( 'NONE',  ( 3.491481338843133355E-15, -1.219242935835426903E-16, 1.000000000000000000 ) ) ;
#211 = CC_DESIGN_DATE_AND_TIME_ASSIGNMENT ( #37, #180, ( #215 ) ) ;
#212 = CARTESIAN_POINT ( 'NONE',  ( -1.858379024025055817E-30, -0.4250000000000000444, -5.322609069538406614E-16 ) ) ;
#213 = DIRECTION ( 'NONE',  ( 4.275831445896958607E-31, 1.000000000000000000, 1.224646799147353207E-16 ) ) ;
#214 = DIRECTION ( 'NONE',  ( 0.0000000000000000000, -1.000000000000000000, 0.0000000000000000000 ) ) ;
#215 = PRODUCT_DEFINITION ( 'UNKNOWN', '', #230, #150 ) ;
#216 = DIRECTION ( 'NONE',  ( -4.275831445896958607E-31, -1.000000000000000000, -1.224646799147353207E-16 ) ) ;
#217 = CIRCLE ( 'NONE', #88, 0.4249999999999998779 ) ;
#218 = DIRECTION ( 'NONE',  ( -3.491481338843133355E-15, 1.224646799147353207E-16, -1.000000000000000000 ) ) ;
#219 = DIRECTION ( 'NONE',  ( -3.491481338843133355E-15, 1.224646799147353207E-16, -1.000000000000000000 ) ) ;
#220 = AXIS2_PLACEMENT_3D ( 'NONE', #95, #197, #213 ) ;
#221 = VERTEX_POINT ( 'NONE', #99 ) ;
#222 = FACE_OUTER_BOUND ( 'NONE', #121, .T. ) ;
#223 = AXIS2_PLACEMENT_3D ( 'NONE', #49, #114, #216 ) ;
#224 = LOCAL_TIME ( 16, 36, 8.000000000000000000, #20 ) ;
#225 = FACE_OUTER_BOUND ( 'NONE', #109, .T. ) ;
#226 = PERSON ( 'UNSPECIFIED', 'UNSPECIFIED', 'UNSPECIFIED', ('UNSPECIFIED'), ('UNSPECIFIED'), ('UNSPECIFIED') ) ;
#227 = PRODUCT_DEFINITION_SHAPE ( 'NONE', 'NONE',  #215 ) ;
#228 = ADVANCED_FACE ( 'NONE', ( #193, #48 ), #178, .T. ) ;
#229 = CIRCLE ( 'NONE', #19, 0.4931483474218603669 ) ;
#230 = PRODUCT_DEFINITION_FORMATION_WITH_SPECIFIED_SOURCE ( 'ANY', '', #53, .NOT_KNOWN. ) ;
#231 = MECHANICAL_CONTEXT ( 'NONE', #176, 'mechanical' ) ;
#232 = APPROVAL_STATUS ( 'not_yet_approved' ) ;
#233 = AXIS2_PLACEMENT_3D ( 'NONE', #168, #218, #127 ) ;
#234 = ORIENTED_EDGE ( 'NONE', *, *, #1, .F. ) ;
#235 = FACE_OUTER_BOUND ( 'NONE', #209, .T. ) ;
#236 = PERSON_AND_ORGANIZATION_ROLE ( 'design_supplier' ) ;
#237 = DIRECTION ( 'NONE',  ( -4.275831445896958607E-31, -1.000000000000000000, -1.224646799147353207E-16 ) ) ;
#238 = APPROVAL_PERSON_ORGANIZATION ( #67, #146, #43 ) ;
#239 = PERSON_AND_ORGANIZATION ( #226, #195 ) ;
#240 = CARTESIAN_POINT ( 'NONE',  ( 0.0000000000000000000, 0.0000000000000000000, 0.0000000000000000000 ) ) ;
#241 = PERSON_AND_ORGANIZATION_ROLE ( 'creator' ) ;
#242 = CARTESIAN_POINT ( 'NONE',  ( -1.677458055810663319E-30, 5.857768340199824875E-32, -4.804430821808349737E-16 ) ) ;
#243 = CIRCLE ( 'NONE', #162, 1.499999999999996669 ) ;
ENDSEC;
END-ISO-10303-21;
