ISO-10303-21;
HEADER;
FILE_DESCRIPTION (( 'STEP AP203' ),
    '1' );
FILE_NAME ('966066.step',
    '2021-11-16T15:36:07',
    ( '' ),
    ( '' ),
    'SwSTEP 2.0',
    'SolidWorks 2019',
    '' );
FILE_SCHEMA (( 'CONFIG_CONTROL_DESIGN' ));
ENDSEC;

DATA;
#1 = CARTESIAN_POINT ( 'NONE',  ( 6.982962677686265133E-15, -2.438485871670853312E-16, 1.999999999999999556 ) ) ;
#2 = CLOSED_SHELL ( 'NONE', ( #191, #129, #165, #214, #109, #83 ) ) ;
#3 = DIRECTION ( 'NONE',  ( -4.256963957985706261E-31, -1.000000000000000000, -1.219242935835425917E-16 ) ) ;
#4 = DIRECTION ( 'NONE',  ( 3.491481338843133355E-15, -1.219242935835426903E-16, 1.000000000000000000 ) ) ;
#5 = CARTESIAN_POINT ( 'NONE',  ( 3.526609723027034716E-14, -1.231509945195335546E-15, 10.10061169106961465 ) ) ;
#6 = APPROVAL_ROLE ( '' ) ;
#7 = CC_DESIGN_DATE_AND_TIME_ASSIGNMENT ( #159, #180, ( #146 ) ) ;
#8 =( LENGTH_UNIT ( ) NAMED_UNIT ( * ) SI_UNIT ( .MILLI., .METRE. ) );
#9 = FACE_OUTER_BOUND ( 'NONE', #140, .T. ) ;
#10 = CARTESIAN_POINT ( 'NONE',  ( 0.0000000000000000000, 0.0000000000000000000, 0.0000000000000000000 ) ) ;
#11 = APPROVAL_DATE_TIME ( #67, #138 ) ;
#12 = DIRECTION ( 'NONE',  ( 3.491481338843133355E-15, -1.224646799147353207E-16, 1.000000000000000000 ) ) ;
#13 = CIRCLE ( 'NONE', #122, 1.199999999999996847 ) ;
#14 = DIRECTION ( 'NONE',  ( 4.275831445896958607E-31, 1.000000000000000000, 1.224646799147352961E-16 ) ) ;
#15 = CYLINDRICAL_SURFACE ( 'NONE', #206, 0.3999999999999997446 ) ;
#16 = DIRECTION ( 'NONE',  ( -4.317316899811299520E-31, -1.000000000000000000, -1.219242935835426903E-16 ) ) ;
#17 = FACE_OUTER_BOUND ( 'NONE', #176, .T. ) ;
#18 = APPROVAL_ROLE ( '' ) ;
#19 = APPLICATION_PROTOCOL_DEFINITION ( 'international standard', 'config_control_design', 1994, #105 ) ;
#20 = CC_DESIGN_APPROVAL ( #101, ( #167 ) ) ;
#21 = AXIS2_PLACEMENT_3D ( 'NONE', #10, #41, #94 ) ;
#22 = VERTEX_POINT ( 'NONE', #212 ) ;
#23 = APPROVAL_DATE_TIME ( #213, #145 ) ;
#24 = EDGE_CURVE ( 'NONE', #96, #96, #148, .T. ) ;
#25 = CC_DESIGN_APPROVAL ( #145, ( #35 ) ) ;
#26 = EDGE_LOOP ( 'NONE', ( #195 ) ) ;
#27 = PERSON_AND_ORGANIZATION ( #123, #194 ) ;
#28 = CALENDAR_DATE ( 2021, 16, 11 ) ;
#29 = CIRCLE ( 'NONE', #241, 0.3999999999999995226 ) ;
#30 = ORIENTED_EDGE ( 'NONE', *, *, #114, .F. ) ;
#31 = AXIS2_PLACEMENT_3D ( 'NONE', #69, #126, #188 ) ;
#32 = DIRECTION ( 'NONE',  ( 3.491481338843133355E-15, -1.219242935835426903E-16, 1.000000000000000000 ) ) ;
#33 = CC_DESIGN_SECURITY_CLASSIFICATION ( #146, ( #167 ) ) ;
#34 = FACE_OUTER_BOUND ( 'NONE', #181, .T. ) ;
#35 = PRODUCT_DEFINITION ( 'UNKNOWN', '', #167, #182 ) ;
#36 = CARTESIAN_POINT ( 'NONE',  ( 1.326762908760390423E-13, 8.998558695971053960E-33, 38.00000000000000000 ) ) ;
#37 = CARTESIAN_POINT ( 'NONE',  ( 6.982962677686265133E-15, -4.336808689942017736E-16, 1.999999999999999556 ) ) ;
#38 = TOROIDAL_SURFACE ( 'NONE', #77, 2.400000000000000355, 2.000000000000000000 ) ;
#39 = CARTESIAN_POINT ( 'NONE',  ( 6.982962677686266711E-15, 1.124819836996387185E-32, 2.000000000000000000 ) ) ;
#40 = VERTEX_POINT ( 'NONE', #62 ) ;
#41 = DIRECTION ( 'NONE',  ( 0.0000000000000000000, 0.0000000000000000000, 1.000000000000000000 ) ) ;
#42 = CC_DESIGN_PERSON_AND_ORGANIZATION_ASSIGNMENT ( #27, #136, ( #167 ) ) ;
#43 = CARTESIAN_POINT ( 'NONE',  ( 1.326762908760390423E-13, 1.199999999999992406, 38.00000000000000000 ) ) ;
#44 = APPROVAL_STATUS ( 'not_yet_approved' ) ;
#45 = AXIS2_PLACEMENT_3D ( 'NONE', #1, #4, #121 ) ;
#46 = ORIENTED_EDGE ( 'NONE', *, *, #205, .F. ) ;
#47 = ADVANCED_FACE ( 'NONE', ( #93 ), #225, .T. ) ;
#48 = APPROVAL_STATUS ( 'not_yet_approved' ) ;
#49 = EDGE_LOOP ( 'NONE', ( #100 ) ) ;
#50 = CARTESIAN_POINT ( 'NONE',  ( 2.223571148002880989E-14, -7.764822868645977152E-16, 6.368560883500636649 ) ) ;
#51 = DIRECTION ( 'NONE',  ( -3.491481338843133355E-15, 1.224646799147353207E-16, -1.000000000000000000 ) ) ;
#52 = CIRCLE ( 'NONE', #45, 0.3999999999999995226 ) ;
#53 = DIRECTION ( 'NONE',  ( 0.0000000000000000000, 1.000000000000000000, 0.0000000000000000000 ) ) ;
#54 = DIRECTION ( 'NONE',  ( -3.491481338843133355E-15, 1.224646799147353207E-16, -1.000000000000000000 ) ) ;
#55 = PLANE ( 'NONE',  #211 ) ;
#56 = VERTEX_POINT ( 'NONE', #131 ) ;
#57 = MANIFOLD_SOLID_BREP ( 'Corps-Déplacer/Copier1[2]', #132 ) ;
#58 = CALENDAR_DATE ( 2021, 16, 11 ) ;
#59 = CC_DESIGN_DATE_AND_TIME_ASSIGNMENT ( #130, #135, ( #35 ) ) ;
#60 = DIRECTION ( 'NONE',  ( 3.491481338843133355E-15, -1.219242935835426903E-16, 1.000000000000000000 ) ) ;
#61 = APPROVAL_PERSON_ORGANIZATION ( #209, #101, #18 ) ;
#62 = CARTESIAN_POINT ( 'NONE',  ( 1.316288464743861212E-13, 1.499999999999992228, 37.69999999999999574 ) ) ;
#63 = COORDINATED_UNIVERSAL_TIME_OFFSET ( 1, 0, .AHEAD. ) ;
#64 =( GEOMETRIC_REPRESENTATION_CONTEXT ( 3 ) GLOBAL_UNCERTAINTY_ASSIGNED_CONTEXT ( ( #161 ) ) GLOBAL_UNIT_ASSIGNED_CONTEXT ( ( #8, #97, #113 ) ) REPRESENTATION_CONTEXT ( 'NONE', 'WORKASPACE' ) );
#65 = ORIENTED_EDGE ( 'NONE', *, *, #185, .F. ) ;
#66 = ORIENTED_EDGE ( 'NONE', *, *, #185, .T. ) ;
#67 = DATE_AND_TIME ( #103, #152 ) ;
#68 = AXIS2_PLACEMENT_3D ( 'NONE', #87, #224, #70 ) ;
#69 = CARTESIAN_POINT ( 'NONE',  ( 6.982962677686266711E-15, 1.124819836996387185E-32, 2.000000000000000000 ) ) ;
#70 = DIRECTION ( 'NONE',  ( 0.0000000000000000000, -1.000000000000000000, 0.0000000000000000000 ) ) ;
#71 = FACE_BOUND ( 'NONE', #49, .T. ) ;
#72 = CARTESIAN_POINT ( 'NONE',  ( 1.316288464743861212E-13, -4.616918432785521081E-15, 37.69999999999999574 ) ) ;
#73 = MECHANICAL_CONTEXT ( 'NONE', #104, 'mechanical' ) ;
#74 = CONICAL_SURFACE ( 'NONE', #220, 2.499999999999995559, 0.2617993877991429130 ) ;
#75 = CALENDAR_DATE ( 2021, 16, 11 ) ;
#76 = VERTEX_POINT ( 'NONE', #128 ) ;
#77 = AXIS2_PLACEMENT_3D ( 'NONE', #37, #125, #16 ) ;
#78 = EDGE_LOOP ( 'NONE', ( #118 ) ) ;
#79 = COORDINATED_UNIVERSAL_TIME_OFFSET ( 1, 0, .AHEAD. ) ;
#80 = EDGE_LOOP ( 'NONE', ( #218 ) ) ;
#81 = CIRCLE ( 'NONE', #68, 0.4681483474218601226 ) ;
#82 = EDGE_LOOP ( 'NONE', ( #238 ) ) ;
#83 = ADVANCED_FACE ( 'NONE', ( #169 ), #204, .F. ) ;
#84 = SHAPE_DEFINITION_REPRESENTATION ( #216, #229 ) ;
#85 = PERSON_AND_ORGANIZATION ( #123, #194 ) ;
#86 = LOCAL_TIME ( 16, 36, 7.000000000000000000, #233 ) ;
#87 = CARTESIAN_POINT ( 'NONE',  ( 8.790286409911523091E-15, -3.069612456472676549E-16, 2.517638090205028600 ) ) ;
#88 = CARTESIAN_POINT ( 'NONE',  ( 1.326762908760390423E-13, -4.653657836759941941E-15, 38.00000000000000000 ) ) ;
#89 = EDGE_CURVE ( 'NONE', #56, #56, #95, .T. ) ;
#90 = DIRECTION ( 'NONE',  ( -3.491481338843133355E-15, 1.224646799147353207E-16, -1.000000000000000000 ) ) ;
#91 = DIRECTION ( 'NONE',  ( 3.491481338843133355E-15, -1.219242935835426903E-16, 1.000000000000000000 ) ) ;
#92 = AXIS2_PLACEMENT_3D ( 'NONE', #39, #12, #166 ) ;
#93 = FACE_OUTER_BOUND ( 'NONE', #120, .T. ) ;
#94 = DIRECTION ( 'NONE',  ( 1.000000000000000000, 0.0000000000000000000, 0.0000000000000000000 ) ) ;
#95 = CIRCLE ( 'NONE', #187, 1.499999999999994671 ) ;
#96 = VERTEX_POINT ( 'NONE', #231 ) ;
#97 =( NAMED_UNIT ( * ) PLANE_ANGLE_UNIT ( ) SI_UNIT ( $, .RADIAN. ) );
#98 = APPROVAL_ROLE ( '' ) ;
#99 = DATE_AND_TIME ( #200, #199 ) ;
#100 = ORIENTED_EDGE ( 'NONE', *, *, #205, .T. ) ;
#101 = APPROVAL ( #44, 'UNSPECIFIED' ) ;
#102 = AXIS2_PLACEMENT_3D ( 'NONE', #72, #51, #53 ) ;
#103 = CALENDAR_DATE ( 2021, 16, 11 ) ;
#104 = APPLICATION_CONTEXT ( 'configuration controlled 3d designs of mechanical parts and assemblies' ) ;
#105 = APPLICATION_CONTEXT ( 'configuration controlled 3d designs of mechanical parts and assemblies' ) ;
#106 = DIRECTION ( 'NONE',  ( -3.491481338843133355E-15, 1.224646799147353207E-16, -1.000000000000000000 ) ) ;
#107 = CYLINDRICAL_SURFACE ( 'NONE', #232, 1.499999999999994671 ) ;
#108 = DIRECTION ( 'NONE',  ( 3.491481338843133355E-15, -1.219242935835426903E-16, 1.000000000000000000 ) ) ;
#109 = ADVANCED_FACE ( 'NONE', ( #164, #144 ), #38, .F. ) ;
#110 = FACE_OUTER_BOUND ( 'NONE', #137, .T. ) ;
#111 = LOCAL_TIME ( 16, 36, 7.000000000000000000, #240 ) ;
#112 = DIRECTION ( 'NONE',  ( 0.0000000000000000000, -1.000000000000000000, 0.0000000000000000000 ) ) ;
#113 =( NAMED_UNIT ( * ) SI_UNIT ( $, .STERADIAN. ) SOLID_ANGLE_UNIT ( ) );
#114 = EDGE_CURVE ( 'NONE', #76, #76, #81, .T. ) ;
#115 = PERSON_AND_ORGANIZATION ( #123, #194 ) ;
#116 = PERSON_AND_ORGANIZATION_ROLE ( 'classification_officer' ) ;
#117 = ORIENTED_EDGE ( 'NONE', *, *, #89, .T. ) ;
#118 = ORIENTED_EDGE ( 'NONE', *, *, #24, .T. ) ;
#119 = COORDINATED_UNIVERSAL_TIME_OFFSET ( 1, 0, .AHEAD. ) ;
#120 = EDGE_LOOP ( 'NONE', ( #239 ) ) ;
#121 = DIRECTION ( 'NONE',  ( 0.0000000000000000000, -1.000000000000000000, 0.0000000000000000000 ) ) ;
#122 = AXIS2_PLACEMENT_3D ( 'NONE', #88, #171, #227 ) ;
#123 = PERSON ( 'UNSPECIFIED', 'UNSPECIFIED', 'UNSPECIFIED', ('UNSPECIFIED'), ('UNSPECIFIED'), ('UNSPECIFIED') ) ;
#124 = CARTESIAN_POINT ( 'NONE',  ( 0.0000000000000000000, 0.0000000000000000000, 0.0000000000000000000 ) ) ;
#125 = DIRECTION ( 'NONE',  ( 3.491481338843133355E-15, -1.219242935835426903E-16, 1.000000000000000000 ) ) ;
#126 = DIRECTION ( 'NONE',  ( 3.491481338843133355E-15, -1.224646799147353207E-16, 1.000000000000000000 ) ) ;
#127 = DIRECTION ( 'NONE',  ( 4.275831445896958607E-31, 1.000000000000000000, 1.224646799147353207E-16 ) ) ;
#128 = CARTESIAN_POINT ( 'NONE',  ( 8.790286409911523091E-15, -0.4681483474218604002, 2.517638090205028600 ) ) ;
#129 = ADVANCED_FACE ( 'NONE', ( #163, #71 ), #154, .T. ) ;
#130 = DATE_AND_TIME ( #58, #177 ) ;
#131 = CARTESIAN_POINT ( 'NONE',  ( 2.223571148002880989E-14, -1.499999999999995559, 6.368560883500636649 ) ) ;
#132 = CLOSED_SHELL ( 'NONE', ( #47, #179, #189 ) ) ;
#133 = DIRECTION ( 'NONE',  ( 0.0000000000000000000, -1.000000000000000000, 0.0000000000000000000 ) ) ;
#134 = CC_DESIGN_PERSON_AND_ORGANIZATION_ASSIGNMENT ( #115, #151, ( #157 ) ) ;
#135 = DATE_TIME_ROLE ( 'creation_date' ) ;
#136 = PERSON_AND_ORGANIZATION_ROLE ( 'creator' ) ;
#137 = EDGE_LOOP ( 'NONE', ( #235 ) ) ;
#138 = APPROVAL ( #48, 'UNSPECIFIED' ) ;
#139 = EDGE_LOOP ( 'NONE', ( #65 ) ) ;
#140 = EDGE_LOOP ( 'NONE', ( #117 ) ) ;
#141 = APPROVAL_DATE_TIME ( #99, #101 ) ;
#142 = MANIFOLD_SOLID_BREP ( 'Corps-Déplacer/Copier1[1]', #2 ) ;
#143 = FACE_OUTER_BOUND ( 'NONE', #26, .T. ) ;
#144 = FACE_OUTER_BOUND ( 'NONE', #219, .T. ) ;
#145 = APPROVAL ( #230, 'UNSPECIFIED' ) ;
#146 = SECURITY_CLASSIFICATION ( '', '', #198 ) ;
#147 = PLANE ( 'NONE',  #190 ) ;
#148 = CIRCLE ( 'NONE', #178, 0.3999999999999999667 ) ;
#149 = FACE_OUTER_BOUND ( 'NONE', #78, .T. ) ;
#150 = DIRECTION ( 'NONE',  ( 0.0000000000000000000, -1.000000000000000000, 0.0000000000000000000 ) ) ;
#151 = PERSON_AND_ORGANIZATION_ROLE ( 'design_owner' ) ;
#152 = LOCAL_TIME ( 16, 36, 7.000000000000000000, #79 ) ;
#153 = CC_DESIGN_PERSON_AND_ORGANIZATION_ASSIGNMENT ( #85, #116, ( #146 ) ) ;
#154 = CONICAL_SURFACE ( 'NONE', #174, 1.199999999999996847, 0.7853981633974453924 ) ;
#155 = APPLICATION_PROTOCOL_DEFINITION ( 'international standard', 'config_control_design', 1994, #104 ) ;
#156 = PERSON_AND_ORGANIZATION ( #123, #194 ) ;
#157 = PRODUCT ( '966066', '966066', '', ( #73 ) ) ;
#158 = ORIENTED_EDGE ( 'NONE', *, *, #175, .T. ) ;
#159 = DATE_AND_TIME ( #28, #111 ) ;
#160 = EDGE_LOOP ( 'NONE', ( #66 ) ) ;
#161 = UNCERTAINTY_MEASURE_WITH_UNIT (LENGTH_MEASURE( 1.000000000000000082E-05 ), #8, 'distance_accuracy_value', 'NONE');
#162 = APPROVAL_PERSON_ORGANIZATION ( #170, #145, #6 ) ;
#163 = FACE_OUTER_BOUND ( 'NONE', #217, .T. ) ;
#164 = FACE_OUTER_BOUND ( 'NONE', #160, .T. ) ;
#165 = ADVANCED_FACE ( 'NONE', ( #17 ), #55, .F. ) ;
#166 = DIRECTION ( 'NONE',  ( -4.275831445896958607E-31, -1.000000000000000000, -1.224646799147353207E-16 ) ) ;
#167 = PRODUCT_DEFINITION_FORMATION_WITH_SPECIFIED_SOURCE ( 'ANY', '', #157, .NOT_KNOWN. ) ;
#168 = FACE_OUTER_BOUND ( 'NONE', #80, .T. ) ;
#169 = FACE_OUTER_BOUND ( 'NONE', #139, .T. ) ;
#170 = PERSON_AND_ORGANIZATION ( #123, #194 ) ;
#171 = DIRECTION ( 'NONE',  ( -3.491481338843133355E-15, 1.224646799147353207E-16, -1.000000000000000000 ) ) ;
#172 = EDGE_CURVE ( 'NONE', #192, #192, #52, .T. ) ;
#173 = PERSON_AND_ORGANIZATION_ROLE ( 'creator' ) ;
#174 = AXIS2_PLACEMENT_3D ( 'NONE', #223, #90, #203 ) ;
#175 = EDGE_CURVE ( 'NONE', #40, #40, #215, .T. ) ;
#176 = EDGE_LOOP ( 'NONE', ( #46 ) ) ;
#177 = LOCAL_TIME ( 16, 36, 7.000000000000000000, #63 ) ;
#178 = AXIS2_PLACEMENT_3D ( 'NONE', #226, #108, #3 ) ;
#179 = ADVANCED_FACE ( 'NONE', ( #149, #143 ), #15, .T. ) ;
#180 = DATE_TIME_ROLE ( 'classification_date' ) ;
#181 = EDGE_LOOP ( 'NONE', ( #158 ) ) ;
#182 = DESIGN_CONTEXT ( 'detailed design', #105, 'design' ) ;
#183 = CC_DESIGN_APPROVAL ( #138, ( #146 ) ) ;
#184 = DIRECTION ( 'NONE',  ( 3.491481338843133355E-15, -1.224646799147353207E-16, 1.000000000000000000 ) ) ;
#185 = EDGE_CURVE ( 'NONE', #22, #22, #29, .T. ) ;
#186 = DIRECTION ( 'NONE',  ( -3.491481338843133355E-15, 1.219242935835426903E-16, -1.000000000000000000 ) ) ;
#187 = AXIS2_PLACEMENT_3D ( 'NONE', #50, #186, #112 ) ;
#188 = DIRECTION ( 'NONE',  ( -4.275831445896958607E-31, -1.000000000000000000, -1.224646799147353207E-16 ) ) ;
#189 = ADVANCED_FACE ( 'NONE', ( #110 ), #147, .F. ) ;
#190 = AXIS2_PLACEMENT_3D ( 'NONE', #207, #184, #202 ) ;
#191 = ADVANCED_FACE ( 'NONE', ( #34, #168 ), #107, .T. ) ;
#192 = VERTEX_POINT ( 'NONE', #208 ) ;
#193 = FACE_BOUND ( 'NONE', #82, .T. ) ;
#194 = ORGANIZATION ( 'UNSPECIFIED', 'UNSPECIFIED', '' ) ;
#195 = ORIENTED_EDGE ( 'NONE', *, *, #172, .F. ) ;
#196 = PERSON_AND_ORGANIZATION_ROLE ( 'design_supplier' ) ;
#197 = ORIENTED_EDGE ( 'NONE', *, *, #175, .F. ) ;
#198 = SECURITY_CLASSIFICATION_LEVEL ( 'unclassified' ) ;
#199 = LOCAL_TIME ( 16, 36, 7.000000000000000000, #119 ) ;
#200 = CALENDAR_DATE ( 2021, 16, 11 ) ;
#201 = DIRECTION ( 'NONE',  ( -4.256963957985708889E-31, -1.000000000000000000, -1.219242935835426903E-16 ) ) ;
#202 = DIRECTION ( 'NONE',  ( -4.275831445896958607E-31, -1.000000000000000000, -1.224646799147353207E-16 ) ) ;
#203 = DIRECTION ( 'NONE',  ( 0.0000000000000000000, 1.000000000000000000, 0.0000000000000000000 ) ) ;
#204 = PLANE ( 'NONE',  #92 ) ;
#205 = EDGE_CURVE ( 'NONE', #210, #210, #13, .T. ) ;
#206 = AXIS2_PLACEMENT_3D ( 'NONE', #124, #91, #201 ) ;
#207 = CARTESIAN_POINT ( 'NONE',  ( -4.275811853558651348E-31, 1.499752910594655314E-32, -1.224641187678636516E-16 ) ) ;
#208 = CARTESIAN_POINT ( 'NONE',  ( 6.982962677686265133E-15, -0.3999999999999997446, 1.999999999999999556 ) ) ;
#209 = PERSON_AND_ORGANIZATION ( #123, #194 ) ;
#210 = VERTEX_POINT ( 'NONE', #43 ) ;
#211 = AXIS2_PLACEMENT_3D ( 'NONE', #36, #54, #127 ) ;
#212 = CARTESIAN_POINT ( 'NONE',  ( 6.982962677686265133E-15, -0.3999999999999997446, 1.999999999999999556 ) ) ;
#213 = DATE_AND_TIME ( #75, #86 ) ;
#214 = ADVANCED_FACE ( 'NONE', ( #193, #9 ), #74, .T. ) ;
#215 = CIRCLE ( 'NONE', #102, 1.499999999999996669 ) ;
#216 = PRODUCT_DEFINITION_SHAPE ( 'NONE', 'NONE',  #35 ) ;
#217 = EDGE_LOOP ( 'NONE', ( #197 ) ) ;
#218 = ORIENTED_EDGE ( 'NONE', *, *, #89, .F. ) ;
#219 = EDGE_LOOP ( 'NONE', ( #30 ) ) ;
#220 = AXIS2_PLACEMENT_3D ( 'NONE', #5, #60, #133 ) ;
#221 = CARTESIAN_POINT ( 'NONE',  ( 0.0000000000000000000, 0.0000000000000000000, 0.0000000000000000000 ) ) ;
#222 = CC_DESIGN_PERSON_AND_ORGANIZATION_ASSIGNMENT ( #156, #196, ( #167 ) ) ;
#223 = CARTESIAN_POINT ( 'NONE',  ( 1.326762908760390423E-13, -4.653657836759941941E-15, 38.00000000000000000 ) ) ;
#224 = DIRECTION ( 'NONE',  ( 3.491481338843133355E-15, -1.219242935835426903E-16, 1.000000000000000000 ) ) ;
#225 = PLANE ( 'NONE',  #31 ) ;
#226 = CARTESIAN_POINT ( 'NONE',  ( -1.666815645915698930E-30, 5.820604506785210384E-32, -4.773949748412463226E-16 ) ) ;
#227 = DIRECTION ( 'NONE',  ( 0.0000000000000000000, 1.000000000000000000, 0.0000000000000000000 ) ) ;
#228 = PERSON_AND_ORGANIZATION ( #123, #194 ) ;
#229 = ADVANCED_BREP_SHAPE_REPRESENTATION ( '966066', ( #142, #57, #21 ), #64 ) ;
#230 = APPROVAL_STATUS ( 'not_yet_approved' ) ;
#231 = CARTESIAN_POINT ( 'NONE',  ( -1.837094204235127041E-30, -0.3999999999999999667, -5.261646922746633593E-16 ) ) ;
#232 = AXIS2_PLACEMENT_3D ( 'NONE', #221, #106, #14 ) ;
#233 = COORDINATED_UNIVERSAL_TIME_OFFSET ( 1, 0, .AHEAD. ) ;
#234 = PRODUCT_RELATED_PRODUCT_CATEGORY ( 'detail', '', ( #157 ) ) ;
#235 = ORIENTED_EDGE ( 'NONE', *, *, #24, .F. ) ;
#236 = APPROVAL_PERSON_ORGANIZATION ( #237, #138, #98 ) ;
#237 = PERSON_AND_ORGANIZATION ( #123, #194 ) ;
#238 = ORIENTED_EDGE ( 'NONE', *, *, #114, .T. ) ;
#239 = ORIENTED_EDGE ( 'NONE', *, *, #172, .T. ) ;
#240 = COORDINATED_UNIVERSAL_TIME_OFFSET ( 1, 0, .AHEAD. ) ;
#241 = AXIS2_PLACEMENT_3D ( 'NONE', #242, #32, #150 ) ;
#242 = CARTESIAN_POINT ( 'NONE',  ( 6.982962677686265133E-15, -2.438485871670853312E-16, 1.999999999999999556 ) ) ;
#243 = CC_DESIGN_PERSON_AND_ORGANIZATION_ASSIGNMENT ( #228, #173, ( #35 ) ) ;
ENDSEC;
END-ISO-10303-21;
