ISO-10303-21;
HEADER;
FILE_DESCRIPTION (( 'STEP AP203' ),
    '1' );
FILE_NAME ('966065.step',
    '2021-11-16T15:36:07',
    ( '' ),
    ( '' ),
    'SwSTEP 2.0',
    'SolidWorks 2019',
    '' );
FILE_SCHEMA (( 'CONFIG_CONTROL_DESIGN' ));
ENDSEC;

DATA;
#1 = DATE_AND_TIME ( #202, #148 ) ;
#2 = VERTEX_POINT ( 'NONE', #190 ) ;
#3 = DESIGN_CONTEXT ( 'detailed design', #136, 'design' ) ;
#4 = CARTESIAN_POINT ( 'NONE',  ( 1.316288464743861212E-13, 1.499999999999992228, 37.69999999999999574 ) ) ;
#5 = MANIFOLD_SOLID_BREP ( 'Corps-Déplacer/Copier1[2]', #57 ) ;
#6 = PRODUCT_DEFINITION ( 'UNKNOWN', '', #210, #3 ) ;
#7 = EDGE_LOOP ( 'NONE', ( #141 ) ) ;
#8 = CIRCLE ( 'NONE', #14, 1.499999999999996669 ) ;
#9 = ORIENTED_EDGE ( 'NONE', *, *, #226, .T. ) ;
#10 = FACE_OUTER_BOUND ( 'NONE', #230, .T. ) ;
#11 = CYLINDRICAL_SURFACE ( 'NONE', #205, 1.499999999999994671 ) ;
#12 = PERSON_AND_ORGANIZATION_ROLE ( 'creator' ) ;
#13 = CC_DESIGN_APPROVAL ( #218, ( #206 ) ) ;
#14 = AXIS2_PLACEMENT_3D ( 'NONE', #237, #201, #187 ) ;
#15 = FACE_OUTER_BOUND ( 'NONE', #27, .T. ) ;
#16 = DIRECTION ( 'NONE',  ( 3.491481338843133355E-15, -1.219242935835426903E-16, 1.000000000000000000 ) ) ;
#17 = DIRECTION ( 'NONE',  ( -4.317661773764587743E-31, -1.000000000000000000, -1.219242935835426903E-16 ) ) ;
#18 = CALENDAR_DATE ( 2021, 16, 11 ) ;
#19 = PERSON_AND_ORGANIZATION ( #162, #119 ) ;
#20 = EDGE_CURVE ( 'NONE', #97, #97, #171, .T. ) ;
#21 = DIRECTION ( 'NONE',  ( 0.0000000000000000000, 1.000000000000000000, 0.0000000000000000000 ) ) ;
#22 = VERTEX_POINT ( 'NONE', #178 ) ;
#23 = APPLICATION_PROTOCOL_DEFINITION ( 'international standard', 'config_control_design', 1994, #87 ) ;
#24 = EDGE_LOOP ( 'NONE', ( #160 ) ) ;
#25 = CIRCLE ( 'NONE', #180, 0.3749999999999996669 ) ;
#26 = CC_DESIGN_DATE_AND_TIME_ASSIGNMENT ( #107, #174, ( #6 ) ) ;
#27 = EDGE_LOOP ( 'NONE', ( #9 ) ) ;
#28 = ORIENTED_EDGE ( 'NONE', *, *, #20, .T. ) ;
#29 =( GEOMETRIC_REPRESENTATION_CONTEXT ( 3 ) GLOBAL_UNCERTAINTY_ASSIGNED_CONTEXT ( ( #98 ) ) GLOBAL_UNIT_ASSIGNED_CONTEXT ( ( #120, #63, #228 ) ) REPRESENTATION_CONTEXT ( 'NONE', 'WORKASPACE' ) );
#30 = CARTESIAN_POINT ( 'NONE',  ( 2.221232298990053791E-14, -7.756655489645118426E-16, 6.361862153689861188 ) ) ;
#31 = COORDINATED_UNIVERSAL_TIME_OFFSET ( 1, 0, .AHEAD. ) ;
#32 = DIRECTION ( 'NONE',  ( 3.491481338843133355E-15, -1.224646799147353207E-16, 1.000000000000000000 ) ) ;
#33 = APPLICATION_PROTOCOL_DEFINITION ( 'international standard', 'config_control_design', 1994, #136 ) ;
#34 = DIRECTION ( 'NONE',  ( -4.275831445896958607E-31, -1.000000000000000000, -1.224646799147353207E-16 ) ) ;
#35 = PERSON_AND_ORGANIZATION_ROLE ( 'classification_officer' ) ;
#36 = FACE_OUTER_BOUND ( 'NONE', #85, .T. ) ;
#37 = PERSON_AND_ORGANIZATION ( #162, #119 ) ;
#38 = DIRECTION ( 'NONE',  ( 0.0000000000000000000, -1.000000000000000000, 0.0000000000000000000 ) ) ;
#39 = ADVANCED_FACE ( 'NONE', ( #73 ), #242, .F. ) ;
#40 = PERSON_AND_ORGANIZATION ( #162, #119 ) ;
#41 = ORIENTED_EDGE ( 'NONE', *, *, #156, .F. ) ;
#42 = ORIENTED_EDGE ( 'NONE', *, *, #156, .T. ) ;
#43 = ADVANCED_BREP_SHAPE_REPRESENTATION ( '966065', ( #89, #5, #123 ), #29 ) ;
#44 = CIRCLE ( 'NONE', #81, 1.199999999999996847 ) ;
#45 = APPROVAL_PERSON_ORGANIZATION ( #72, #173, #95 ) ;
#46 = CARTESIAN_POINT ( 'NONE',  ( 6.633814543801950220E-15, -2.316561578087310228E-16, 1.899999999999999023 ) ) ;
#47 = APPROVAL_ROLE ( '' ) ;
#48 = CARTESIAN_POINT ( 'NONE',  ( 6.633814543801952586E-15, -2.746645503629952126E-16, 1.899999999999999689 ) ) ;
#49 = PERSON_AND_ORGANIZATION_ROLE ( 'design_owner' ) ;
#50 = FACE_OUTER_BOUND ( 'NONE', #144, .T. ) ;
#51 = PERSON_AND_ORGANIZATION ( #162, #119 ) ;
#52 = DIRECTION ( 'NONE',  ( 4.275831445896958607E-31, 1.000000000000000000, 1.224646799147352961E-16 ) ) ;
#53 = COORDINATED_UNIVERSAL_TIME_OFFSET ( 1, 0, .AHEAD. ) ;
#54 = ADVANCED_FACE ( 'NONE', ( #15, #36 ), #169, .T. ) ;
#55 = FACE_BOUND ( 'NONE', #102, .T. ) ;
#56 = APPROVAL_STATUS ( 'not_yet_approved' ) ;
#57 = CLOSED_SHELL ( 'NONE', ( #196, #54, #121 ) ) ;
#58 = CARTESIAN_POINT ( 'NONE',  ( 8.441138276027208178E-15, -0.4431483474218600449, 2.417638090205028067 ) ) ;
#59 = LOCAL_TIME ( 16, 36, 7.000000000000000000, #112 ) ;
#60 = CC_DESIGN_PERSON_AND_ORGANIZATION_ASSIGNMENT ( #147, #35, ( #206 ) ) ;
#61 = FACE_BOUND ( 'NONE', #158, .T. ) ;
#62 = AXIS2_PLACEMENT_3D ( 'NONE', #30, #183, #38 ) ;
#63 =( NAMED_UNIT ( * ) PLANE_ANGLE_UNIT ( ) SI_UNIT ( $, .RADIAN. ) );
#64 = EDGE_LOOP ( 'NONE', ( #193 ) ) ;
#65 = CC_DESIGN_DATE_AND_TIME_ASSIGNMENT ( #76, #132, ( #206 ) ) ;
#66 = EDGE_LOOP ( 'NONE', ( #67 ) ) ;
#67 = ORIENTED_EDGE ( 'NONE', *, *, #226, .F. ) ;
#68 = PLANE ( 'NONE',  #199 ) ;
#69 = CC_DESIGN_APPROVAL ( #173, ( #6 ) ) ;
#70 = CC_DESIGN_APPROVAL ( #78, ( #210 ) ) ;
#71 = DIRECTION ( 'NONE',  ( 3.491481338843133355E-15, -1.224646799147353207E-16, 1.000000000000000000 ) ) ;
#72 = PERSON_AND_ORGANIZATION ( #162, #119 ) ;
#73 = FACE_OUTER_BOUND ( 'NONE', #7, .T. ) ;
#74 = DIRECTION ( 'NONE',  ( -3.491481338843133355E-15, 1.224646799147353207E-16, -1.000000000000000000 ) ) ;
#75 = DIRECTION ( 'NONE',  ( -3.491481338843133355E-15, 1.224646799147353207E-16, -1.000000000000000000 ) ) ;
#76 = DATE_AND_TIME ( #239, #59 ) ;
#77 = VERTEX_POINT ( 'NONE', #137 ) ;
#78 = APPROVAL ( #56, 'UNSPECIFIED' ) ;
#79 = PRODUCT ( '966065', '966065', '', ( #215 ) ) ;
#80 = VERTEX_POINT ( 'NONE', #157 ) ;
#81 = AXIS2_PLACEMENT_3D ( 'NONE', #106, #74, #126 ) ;
#82 = EDGE_CURVE ( 'NONE', #177, #177, #25, .T. ) ;
#83 = ORIENTED_EDGE ( 'NONE', *, *, #159, .T. ) ;
#84 = CONICAL_SURFACE ( 'NONE', #138, 2.499999999999995559, 0.2617993877991429130 ) ;
#85 = EDGE_LOOP ( 'NONE', ( #140 ) ) ;
#86 = DIRECTION ( 'NONE',  ( 3.491481338843133355E-15, -1.219242935835426903E-16, 1.000000000000000000 ) ) ;
#87 = APPLICATION_CONTEXT ( 'configuration controlled 3d designs of mechanical parts and assemblies' ) ;
#88 = PLANE ( 'NONE',  #100 ) ;
#89 = MANIFOLD_SOLID_BREP ( 'Corps-Déplacer/Copier1[1]', #143 ) ;
#90 = APPROVAL_ROLE ( '' ) ;
#91 = CIRCLE ( 'NONE', #62, 1.499999999999994671 ) ;
#92 = DIRECTION ( 'NONE',  ( 0.0000000000000000000, -1.000000000000000000, 0.0000000000000000000 ) ) ;
#93 = CARTESIAN_POINT ( 'NONE',  ( 0.0000000000000000000, 0.0000000000000000000, 0.0000000000000000000 ) ) ;
#94 = DIRECTION ( 'NONE',  ( 4.275831445896958607E-31, 1.000000000000000000, 1.224646799147353207E-16 ) ) ;
#95 = APPROVAL_ROLE ( '' ) ;
#96 = PERSON_AND_ORGANIZATION_ROLE ( 'design_supplier' ) ;
#97 = VERTEX_POINT ( 'NONE', #58 ) ;
#98 = UNCERTAINTY_MEASURE_WITH_UNIT (LENGTH_MEASURE( 1.000000000000000082E-05 ), #120, 'distance_accuracy_value', 'NONE');
#99 = ADVANCED_FACE ( 'NONE', ( #161, #113 ), #11, .T. ) ;
#100 = AXIS2_PLACEMENT_3D ( 'NONE', #48, #71, #198 ) ;
#101 = CARTESIAN_POINT ( 'NONE',  ( 1.326762908760390423E-13, -4.653657836759941941E-15, 38.00000000000000000 ) ) ;
#102 = EDGE_LOOP ( 'NONE', ( #28 ) ) ;
#103 = CC_DESIGN_PERSON_AND_ORGANIZATION_ASSIGNMENT ( #37, #96, ( #210 ) ) ;
#104 = PRODUCT_RELATED_PRODUCT_CATEGORY ( 'detail', '', ( #79 ) ) ;
#105 = TOROIDAL_SURFACE ( 'NONE', #233, 2.375000000000000000, 2.000000000000000000 ) ;
#106 = CARTESIAN_POINT ( 'NONE',  ( 1.326762908760390423E-13, -4.653657836759941941E-15, 38.00000000000000000 ) ) ;
#107 = DATE_AND_TIME ( #18, #236 ) ;
#108 = FACE_OUTER_BOUND ( 'NONE', #232, .T. ) ;
#109 = APPROVAL_DATE_TIME ( #1, #78 ) ;
#110 = AXIS2_PLACEMENT_3D ( 'NONE', #46, #203, #92 ) ;
#111 = CARTESIAN_POINT ( 'NONE',  ( -1.656173236020734542E-30, 5.783440673370594797E-32, -4.743468675016577702E-16 ) ) ;
#112 = COORDINATED_UNIVERSAL_TIME_OFFSET ( 1, 0, .AHEAD. ) ;
#113 = FACE_OUTER_BOUND ( 'NONE', #229, .T. ) ;
#114 = DATE_AND_TIME ( #189, #172 ) ;
#115 = PERSON_AND_ORGANIZATION ( #162, #119 ) ;
#116 = APPROVAL_PERSON_ORGANIZATION ( #19, #78, #47 ) ;
#117 = CC_DESIGN_PERSON_AND_ORGANIZATION_ASSIGNMENT ( #115, #167, ( #6 ) ) ;
#118 = AXIS2_PLACEMENT_3D ( 'NONE', #128, #131, #34 ) ;
#119 = ORGANIZATION ( 'UNSPECIFIED', 'UNSPECIFIED', '' ) ;
#120 =( LENGTH_UNIT ( ) NAMED_UNIT ( * ) SI_UNIT ( .MILLI., .METRE. ) );
#121 = ADVANCED_FACE ( 'NONE', ( #168 ), #68, .F. ) ;
#122 = EDGE_LOOP ( 'NONE', ( #145 ) ) ;
#123 = AXIS2_PLACEMENT_3D ( 'NONE', #217, #129, #188 ) ;
#124 = ORIENTED_EDGE ( 'NONE', *, *, #150, .T. ) ;
#125 = CONICAL_SURFACE ( 'NONE', #139, 1.199999999999996847, 0.7853981633974453924 ) ;
#126 = DIRECTION ( 'NONE',  ( 0.0000000000000000000, 1.000000000000000000, 0.0000000000000000000 ) ) ;
#127 = SECURITY_CLASSIFICATION_LEVEL ( 'unclassified' ) ;
#128 = CARTESIAN_POINT ( 'NONE',  ( 6.633814543801952586E-15, -2.746645503629952126E-16, 1.899999999999999689 ) ) ;
#129 = DIRECTION ( 'NONE',  ( 0.0000000000000000000, 0.0000000000000000000, 1.000000000000000000 ) ) ;
#130 = ADVANCED_FACE ( 'NONE', ( #55, #50 ), #84, .T. ) ;
#131 = DIRECTION ( 'NONE',  ( 3.491481338843133355E-15, -1.224646799147353207E-16, 1.000000000000000000 ) ) ;
#132 = DATE_TIME_ROLE ( 'classification_date' ) ;
#133 = DIRECTION ( 'NONE',  ( 3.491481338843133355E-15, -1.219242935835426903E-16, 1.000000000000000000 ) ) ;
#134 = DIRECTION ( 'NONE',  ( 0.0000000000000000000, -1.000000000000000000, 0.0000000000000000000 ) ) ;
#135 = CC_DESIGN_PERSON_AND_ORGANIZATION_ASSIGNMENT ( #51, #49, ( #79 ) ) ;
#136 = APPLICATION_CONTEXT ( 'configuration controlled 3d designs of mechanical parts and assemblies' ) ;
#137 = CARTESIAN_POINT ( 'NONE',  ( 2.221232298990053791E-14, -1.499999999999995559, 6.361862153689861188 ) ) ;
#138 = AXIS2_PLACEMENT_3D ( 'NONE', #194, #133, #134 ) ;
#139 = AXIS2_PLACEMENT_3D ( 'NONE', #101, #191, #21 ) ;
#140 = ORIENTED_EDGE ( 'NONE', *, *, #142, .F. ) ;
#141 = ORIENTED_EDGE ( 'NONE', *, *, #150, .F. ) ;
#142 = EDGE_CURVE ( 'NONE', #22, #22, #219, .T. ) ;
#143 = CLOSED_SHELL ( 'NONE', ( #99, #238, #39, #130, #209, #212 ) ) ;
#144 = EDGE_LOOP ( 'NONE', ( #42 ) ) ;
#145 = ORIENTED_EDGE ( 'NONE', *, *, #20, .F. ) ;
#146 = DIRECTION ( 'NONE',  ( -3.491481338843133355E-15, 1.224646799147353207E-16, -1.000000000000000000 ) ) ;
#147 = PERSON_AND_ORGANIZATION ( #162, #119 ) ;
#148 = LOCAL_TIME ( 16, 36, 7.000000000000000000, #53 ) ;
#149 = FACE_OUTER_BOUND ( 'NONE', #122, .T. ) ;
#150 = EDGE_CURVE ( 'NONE', #2, #2, #44, .T. ) ;
#151 = APPROVAL_DATE_TIME ( #114, #173 ) ;
#152 = DIRECTION ( 'NONE',  ( 3.491481338843133355E-15, -1.219242935835426903E-16, 1.000000000000000000 ) ) ;
#153 = DIRECTION ( 'NONE',  ( 0.0000000000000000000, -1.000000000000000000, 0.0000000000000000000 ) ) ;
#154 = CIRCLE ( 'NONE', #241, 0.3749999999999998890 ) ;
#155 = DIRECTION ( 'NONE',  ( 3.491481338843133355E-15, -1.219242935835426903E-16, 1.000000000000000000 ) ) ;
#156 = EDGE_CURVE ( 'NONE', #77, #77, #91, .T. ) ;
#157 = CARTESIAN_POINT ( 'NONE',  ( -1.815809384445198614E-30, -0.3749999999999998890, -5.200684775954863530E-16 ) ) ;
#158 = EDGE_LOOP ( 'NONE', ( #124 ) ) ;
#159 = EDGE_CURVE ( 'NONE', #207, #207, #8, .T. ) ;
#160 = ORIENTED_EDGE ( 'NONE', *, *, #142, .T. ) ;
#161 = FACE_OUTER_BOUND ( 'NONE', #234, .T. ) ;
#162 = PERSON ( 'UNSPECIFIED', 'UNSPECIFIED', 'UNSPECIFIED', ('UNSPECIFIED'), ('UNSPECIFIED'), ('UNSPECIFIED') ) ;
#163 = CARTESIAN_POINT ( 'NONE',  ( 6.633814543801950220E-15, -2.316561578087310228E-16, 1.899999999999999023 ) ) ;
#164 = APPROVAL_STATUS ( 'not_yet_approved' ) ;
#165 = PRODUCT_DEFINITION_SHAPE ( 'NONE', 'NONE',  #6 ) ;
#166 = PLANE ( 'NONE',  #118 ) ;
#167 = PERSON_AND_ORGANIZATION_ROLE ( 'creator' ) ;
#168 = FACE_OUTER_BOUND ( 'NONE', #66, .T. ) ;
#169 = CYLINDRICAL_SURFACE ( 'NONE', #208, 0.3749999999999997780 ) ;
#170 = CC_DESIGN_SECURITY_CLASSIFICATION ( #206, ( #210 ) ) ;
#171 = CIRCLE ( 'NONE', #224, 0.4431483474218597673 ) ;
#172 = LOCAL_TIME ( 16, 36, 7.000000000000000000, #204 ) ;
#173 = APPROVAL ( #164, 'UNSPECIFIED' ) ;
#174 = DATE_TIME_ROLE ( 'creation_date' ) ;
#175 = CARTESIAN_POINT ( 'NONE',  ( 6.633814543801950220E-15, -0.3749999999999998890, 1.899999999999999023 ) ) ;
#176 = DIRECTION ( 'NONE',  ( -4.256963957985704510E-31, -1.000000000000000000, -1.219242935835427149E-16 ) ) ;
#177 = VERTEX_POINT ( 'NONE', #175 ) ;
#178 = CARTESIAN_POINT ( 'NONE',  ( 6.633814543801950220E-15, -0.3749999999999998890, 1.899999999999999023 ) ) ;
#179 = ORIENTED_EDGE ( 'NONE', *, *, #82, .F. ) ;
#180 = AXIS2_PLACEMENT_3D ( 'NONE', #163, #184, #153 ) ;
#181 = ORIENTED_EDGE ( 'NONE', *, *, #82, .T. ) ;
#182 = FACE_OUTER_BOUND ( 'NONE', #24, .T. ) ;
#183 = DIRECTION ( 'NONE',  ( -3.491481338843133355E-15, 1.219242935835426903E-16, -1.000000000000000000 ) ) ;
#184 = DIRECTION ( 'NONE',  ( 3.491481338843133355E-15, -1.219242935835426903E-16, 1.000000000000000000 ) ) ;
#185 = APPROVAL_DATE_TIME ( #221, #218 ) ;
#186 = CALENDAR_DATE ( 2021, 16, 11 ) ;
#187 = DIRECTION ( 'NONE',  ( 0.0000000000000000000, 1.000000000000000000, 0.0000000000000000000 ) ) ;
#188 = DIRECTION ( 'NONE',  ( 1.000000000000000000, 0.0000000000000000000, 0.0000000000000000000 ) ) ;
#189 = CALENDAR_DATE ( 2021, 16, 11 ) ;
#190 = CARTESIAN_POINT ( 'NONE',  ( 1.326762908760390423E-13, 1.199999999999992406, 38.00000000000000000 ) ) ;
#191 = DIRECTION ( 'NONE',  ( -3.491481338843133355E-15, 1.224646799147353207E-16, -1.000000000000000000 ) ) ;
#192 = APPROVAL_PERSON_ORGANIZATION ( #213, #218, #90 ) ;
#193 = ORIENTED_EDGE ( 'NONE', *, *, #159, .F. ) ;
#194 = CARTESIAN_POINT ( 'NONE',  ( 3.524270874014207517E-14, -1.230693207295249674E-15, 10.09391296125883919 ) ) ;
#195 = APPROVAL_STATUS ( 'not_yet_approved' ) ;
#196 = ADVANCED_FACE ( 'NONE', ( #182 ), #88, .T. ) ;
#197 = DIRECTION ( 'NONE',  ( 0.0000000000000000000, -1.000000000000000000, 0.0000000000000000000 ) ) ;
#198 = DIRECTION ( 'NONE',  ( -4.275831445896958607E-31, -1.000000000000000000, -1.224646799147353207E-16 ) ) ;
#199 = AXIS2_PLACEMENT_3D ( 'NONE', #211, #32, #222 ) ;
#200 = COORDINATED_UNIVERSAL_TIME_OFFSET ( 1, 0, .AHEAD. ) ;
#201 = DIRECTION ( 'NONE',  ( -3.491481338843133355E-15, 1.224646799147353207E-16, -1.000000000000000000 ) ) ;
#202 = CALENDAR_DATE ( 2021, 16, 11 ) ;
#203 = DIRECTION ( 'NONE',  ( 3.491481338843133355E-15, -1.219242935835426903E-16, 1.000000000000000000 ) ) ;
#204 = COORDINATED_UNIVERSAL_TIME_OFFSET ( 1, 0, .AHEAD. ) ;
#205 = AXIS2_PLACEMENT_3D ( 'NONE', #93, #75, #52 ) ;
#206 = SECURITY_CLASSIFICATION ( '', '', #127 ) ;
#207 = VERTEX_POINT ( 'NONE', #4 ) ;
#208 = AXIS2_PLACEMENT_3D ( 'NONE', #220, #155, #235 ) ;
#209 = ADVANCED_FACE ( 'NONE', ( #108, #149 ), #105, .F. ) ;
#210 = PRODUCT_DEFINITION_FORMATION_WITH_SPECIFIED_SOURCE ( 'ANY', '', #79, .NOT_KNOWN. ) ;
#211 = CARTESIAN_POINT ( 'NONE',  ( -4.275811853558651348E-31, 1.499752910594655314E-32, -1.224641187678636516E-16 ) ) ;
#212 = ADVANCED_FACE ( 'NONE', ( #10 ), #166, .F. ) ;
#213 = PERSON_AND_ORGANIZATION ( #162, #119 ) ;
#214 = CARTESIAN_POINT ( 'NONE',  ( 6.633814543801950220E-15, -4.336808689942017736E-16, 1.899999999999999023 ) ) ;
#215 = MECHANICAL_CONTEXT ( 'NONE', #87, 'mechanical' ) ;
#216 = CARTESIAN_POINT ( 'NONE',  ( 1.326762908760390423E-13, 8.998558695971053960E-33, 38.00000000000000000 ) ) ;
#217 = CARTESIAN_POINT ( 'NONE',  ( 0.0000000000000000000, 0.0000000000000000000, 0.0000000000000000000 ) ) ;
#218 = APPROVAL ( #195, 'UNSPECIFIED' ) ;
#219 = CIRCLE ( 'NONE', #110, 0.3749999999999996669 ) ;
#220 = CARTESIAN_POINT ( 'NONE',  ( 0.0000000000000000000, 0.0000000000000000000, 0.0000000000000000000 ) ) ;
#221 = DATE_AND_TIME ( #186, #225 ) ;
#222 = DIRECTION ( 'NONE',  ( -4.275831445896958607E-31, -1.000000000000000000, -1.224646799147353207E-16 ) ) ;
#223 = FACE_OUTER_BOUND ( 'NONE', #64, .T. ) ;
#224 = AXIS2_PLACEMENT_3D ( 'NONE', #240, #152, #197 ) ;
#225 = LOCAL_TIME ( 16, 36, 7.000000000000000000, #31 ) ;
#226 = EDGE_CURVE ( 'NONE', #80, #80, #154, .T. ) ;
#227 = AXIS2_PLACEMENT_3D ( 'NONE', #216, #146, #94 ) ;
#228 =( NAMED_UNIT ( * ) SI_UNIT ( $, .STERADIAN. ) SOLID_ANGLE_UNIT ( ) );
#229 = EDGE_LOOP ( 'NONE', ( #41 ) ) ;
#230 = EDGE_LOOP ( 'NONE', ( #179 ) ) ;
#231 = CC_DESIGN_PERSON_AND_ORGANIZATION_ASSIGNMENT ( #40, #12, ( #210 ) ) ;
#232 = EDGE_LOOP ( 'NONE', ( #181 ) ) ;
#233 = AXIS2_PLACEMENT_3D ( 'NONE', #214, #86, #17 ) ;
#234 = EDGE_LOOP ( 'NONE', ( #83 ) ) ;
#235 = DIRECTION ( 'NONE',  ( -4.256963957985708889E-31, -1.000000000000000000, -1.219242935835426903E-16 ) ) ;
#236 = LOCAL_TIME ( 16, 36, 7.000000000000000000, #200 ) ;
#237 = CARTESIAN_POINT ( 'NONE',  ( 1.316288464743861212E-13, -4.616918432785521081E-15, 37.69999999999999574 ) ) ;
#238 = ADVANCED_FACE ( 'NONE', ( #223, #61 ), #125, .T. ) ;
#239 = CALENDAR_DATE ( 2021, 16, 11 ) ;
#240 = CARTESIAN_POINT ( 'NONE',  ( 8.441138276027208178E-15, -2.947688162889132971E-16, 2.417638090205028067 ) ) ;
#241 = AXIS2_PLACEMENT_3D ( 'NONE', #111, #16, #176 ) ;
#242 = PLANE ( 'NONE',  #227 ) ;
#243 = SHAPE_DEFINITION_REPRESENTATION ( #165, #43 ) ;
ENDSEC;
END-ISO-10303-21;
