ISO-10303-21;
HEADER;
FILE_DESCRIPTION (( 'STEP AP203' ),
    '1' );
FILE_NAME ('966064.step',
    '2021-11-16T15:36:06',
    ( '' ),
    ( '' ),
    'SwSTEP 2.0',
    'SolidWorks 2019',
    '' );
FILE_SCHEMA (( 'CONFIG_CONTROL_DESIGN' ));
ENDSEC;

DATA;
#1 = ADVANCED_FACE ( 'NONE', ( #204 ), #39, .T. ) ;
#2 = CARTESIAN_POINT ( 'NONE',  ( 2.201436043283009348E-14, -7.687525963852483721E-16, 6.305163423879082352 ) ) ;
#3 = CLOSED_SHELL ( 'NONE', ( #1, #194, #44 ) ) ;
#4 = FACE_OUTER_BOUND ( 'NONE', #243, .T. ) ;
#5 = DIRECTION ( 'NONE',  ( 3.491481338843133355E-15, -1.219242935835426903E-16, 1.000000000000000000 ) ) ;
#6 = EDGE_CURVE ( 'NONE', #180, #180, #182, .T. ) ;
#7 = FACE_OUTER_BOUND ( 'NONE', #187, .T. ) ;
#8 =( NAMED_UNIT ( * ) PLANE_ANGLE_UNIT ( ) SI_UNIT ( $, .RADIAN. ) );
#9 = CARTESIAN_POINT ( 'NONE',  ( 6.110092342975480216E-15, -0.3500000000000004774, 1.749999999999999112 ) ) ;
#10 = ADVANCED_FACE ( 'NONE', ( #233, #4 ), #85, .T. ) ;
#11 = APPLICATION_PROTOCOL_DEFINITION ( 'international standard', 'config_control_design', 1994, #109 ) ;
#12 = DIRECTION ( 'NONE',  ( 0.0000000000000000000, 0.0000000000000000000, 1.000000000000000000 ) ) ;
#13 = ADVANCED_BREP_SHAPE_REPRESENTATION ( '966064', ( #90, #165, #172 ), #33 ) ;
#14 = DATE_AND_TIME ( #83, #73 ) ;
#15 = CALENDAR_DATE ( 2021, 16, 11 ) ;
#16 = EDGE_LOOP ( 'NONE', ( #105 ) ) ;
#17 = EDGE_LOOP ( 'NONE', ( #171 ) ) ;
#18 = DATE_AND_TIME ( #15, #126 ) ;
#19 = ORIENTED_EDGE ( 'NONE', *, *, #169, .T. ) ;
#20 = CC_DESIGN_PERSON_AND_ORGANIZATION_ASSIGNMENT ( #199, #103, ( #207 ) ) ;
#21 = CC_DESIGN_APPROVAL ( #211, ( #207 ) ) ;
#22 = ORIENTED_EDGE ( 'NONE', *, *, #169, .F. ) ;
#23 = CARTESIAN_POINT ( 'NONE',  ( -1.645530826125770504E-30, 5.746276839955980306E-32, -4.712987601620693163E-16 ) ) ;
#24 = DIRECTION ( 'NONE',  ( 3.491481338843133355E-15, -1.219242935835426903E-16, 1.000000000000000000 ) ) ;
#25 = AXIS2_PLACEMENT_3D ( 'NONE', #158, #145, #235 ) ;
#26 = DIRECTION ( 'NONE',  ( -4.256963957985708889E-31, -1.000000000000000000, -1.219242935835426903E-16 ) ) ;
#27 = EDGE_CURVE ( 'NONE', #35, #35, #146, .T. ) ;
#28 = FACE_OUTER_BOUND ( 'NONE', #221, .T. ) ;
#29 = DIRECTION ( 'NONE',  ( 4.275831445896958607E-31, 1.000000000000000000, 1.224646799147353207E-16 ) ) ;
#30 = MECHANICAL_CONTEXT ( 'NONE', #228, 'mechanical' ) ;
#31 =( NAMED_UNIT ( * ) SI_UNIT ( $, .STERADIAN. ) SOLID_ANGLE_UNIT ( ) );
#32 = AXIS2_PLACEMENT_3D ( 'NONE', #178, #212, #114 ) ;
#33 =( GEOMETRIC_REPRESENTATION_CONTEXT ( 3 ) GLOBAL_UNCERTAINTY_ASSIGNED_CONTEXT ( ( #177 ) ) GLOBAL_UNIT_ASSIGNED_CONTEXT ( ( #64, #8, #31 ) ) REPRESENTATION_CONTEXT ( 'NONE', 'WORKASPACE' ) );
#34 = CC_DESIGN_PERSON_AND_ORGANIZATION_ASSIGNMENT ( #147, #220, ( #142 ) ) ;
#35 = VERTEX_POINT ( 'NONE', #217 ) ;
#36 = ORIENTED_EDGE ( 'NONE', *, *, #6, .T. ) ;
#37 = PRODUCT_DEFINITION_SHAPE ( 'NONE', 'NONE',  #207 ) ;
#38 = LOCAL_TIME ( 16, 36, 6.000000000000000000, #170 ) ;
#39 = PLANE ( 'NONE',  #162 ) ;
#40 = EDGE_LOOP ( 'NONE', ( #226 ) ) ;
#41 = CYLINDRICAL_SURFACE ( 'NONE', #102, 1.499999999999994671 ) ;
#42 = DIRECTION ( 'NONE',  ( 4.275831445896958607E-31, 1.000000000000000000, 1.224646799147352961E-16 ) ) ;
#43 = CARTESIAN_POINT ( 'NONE',  ( -4.275811853558651348E-31, 1.499752910594655314E-32, -1.224641187678636516E-16 ) ) ;
#44 = ADVANCED_FACE ( 'NONE', ( #139 ), #47, .F. ) ;
#45 = LOCAL_TIME ( 16, 36, 6.000000000000000000, #69 ) ;
#46 = DIRECTION ( 'NONE',  ( -3.491481338843133355E-15, 1.224646799147353207E-16, -1.000000000000000000 ) ) ;
#47 = PLANE ( 'NONE',  #229 ) ;
#48 = VERTEX_POINT ( 'NONE', #9 ) ;
#49 = CARTESIAN_POINT ( 'NONE',  ( -1.794524564655270539E-30, -0.3500000000000000333, -5.139722629163092480E-16 ) ) ;
#50 = CC_DESIGN_SECURITY_CLASSIFICATION ( #142, ( #55 ) ) ;
#51 = PERSON_AND_ORGANIZATION ( #99, #82 ) ;
#52 = EDGE_CURVE ( 'NONE', #53, #53, #107, .T. ) ;
#53 = VERTEX_POINT ( 'NONE', #160 ) ;
#54 = CIRCLE ( 'NONE', #188, 0.3500000000000002554 ) ;
#55 = PRODUCT_DEFINITION_FORMATION_WITH_SPECIFIED_SOURCE ( 'ANY', '', #130, .NOT_KNOWN. ) ;
#56 = ORIENTED_EDGE ( 'NONE', *, *, #52, .F. ) ;
#57 = ORIENTED_EDGE ( 'NONE', *, *, #159, .F. ) ;
#58 = DIRECTION ( 'NONE',  ( -4.256963957985710640E-31, -1.000000000000000000, -1.219242935835427642E-16 ) ) ;
#59 = DIRECTION ( 'NONE',  ( -3.491481338843133355E-15, 1.219242935835426903E-16, -1.000000000000000000 ) ) ;
#60 = DIRECTION ( 'NONE',  ( -3.491481338843133355E-15, 1.224646799147353207E-16, -1.000000000000000000 ) ) ;
#61 = FACE_OUTER_BOUND ( 'NONE', #106, .T. ) ;
#62 = CARTESIAN_POINT ( 'NONE',  ( 3.504474618307163074E-14, -1.223780254715986104E-15, 10.03721423144806124 ) ) ;
#63 = ADVANCED_FACE ( 'NONE', ( #136, #152 ), #41, .T. ) ;
#64 =( LENGTH_UNIT ( ) NAMED_UNIT ( * ) SI_UNIT ( .MILLI., .METRE. ) );
#65 = CARTESIAN_POINT ( 'NONE',  ( 0.0000000000000000000, 0.0000000000000000000, 0.0000000000000000000 ) ) ;
#66 = CALENDAR_DATE ( 2021, 16, 11 ) ;
#67 = CONICAL_SURFACE ( 'NONE', #224, 1.199999999999996847, 0.7853981633974453924 ) ;
#68 = VERTEX_POINT ( 'NONE', #140 ) ;
#69 = COORDINATED_UNIVERSAL_TIME_OFFSET ( 1, 0, .AHEAD. ) ;
#70 = APPROVAL_PERSON_ORGANIZATION ( #242, #111, #93 ) ;
#71 = PERSON_AND_ORGANIZATION_ROLE ( 'creator' ) ;
#72 = AXIS2_PLACEMENT_3D ( 'NONE', #179, #46, #76 ) ;
#73 = LOCAL_TIME ( 16, 36, 6.000000000000000000, #184 ) ;
#74 = CC_DESIGN_PERSON_AND_ORGANIZATION_ASSIGNMENT ( #208, #150, ( #55 ) ) ;
#75 = ORIENTED_EDGE ( 'NONE', *, *, #124, .F. ) ;
#76 = DIRECTION ( 'NONE',  ( 0.0000000000000000000, 1.000000000000000000, 0.0000000000000000000 ) ) ;
#77 = DIRECTION ( 'NONE',  ( 3.491481338843133355E-15, -1.219242935835426903E-16, 1.000000000000000000 ) ) ;
#78 = FACE_OUTER_BOUND ( 'NONE', #127, .T. ) ;
#79 = DIRECTION ( 'NONE',  ( 0.0000000000000000000, 1.000000000000000000, 0.0000000000000000000 ) ) ;
#80 = PRODUCT_RELATED_PRODUCT_CATEGORY ( 'detail', '', ( #130 ) ) ;
#81 = DIRECTION ( 'NONE',  ( 0.0000000000000000000, -1.000000000000000000, 0.0000000000000000000 ) ) ;
#82 = ORGANIZATION ( 'UNSPECIFIED', 'UNSPECIFIED', '' ) ;
#83 = CALENDAR_DATE ( 2021, 16, 11 ) ;
#84 = CARTESIAN_POINT ( 'NONE',  ( 2.201436043283009348E-14, -1.499999999999995559, 6.305163423879082352 ) ) ;
#85 = CONICAL_SURFACE ( 'NONE', #141, 2.499999999999995559, 0.2617993877991429130 ) ;
#86 = DATE_TIME_ROLE ( 'creation_date' ) ;
#87 = APPROVAL_DATE_TIME ( #108, #111 ) ;
#88 = CALENDAR_DATE ( 2021, 16, 11 ) ;
#89 = AXIS2_PLACEMENT_3D ( 'NONE', #23, #77, #58 ) ;
#90 = MANIFOLD_SOLID_BREP ( 'Corps-Déplacer/Copier1[1]', #234 ) ;
#91 = EDGE_LOOP ( 'NONE', ( #22 ) ) ;
#92 = DATE_TIME_ROLE ( 'classification_date' ) ;
#93 = APPROVAL_ROLE ( '' ) ;
#94 = EDGE_LOOP ( 'NONE', ( #57 ) ) ;
#95 = PLANE ( 'NONE',  #120 ) ;
#96 = CARTESIAN_POINT ( 'NONE',  ( 1.326762908760390423E-13, 8.998558695971053960E-33, 38.00000000000000000 ) ) ;
#97 = AXIS2_PLACEMENT_3D ( 'NONE', #2, #59, #98 ) ;
#98 = DIRECTION ( 'NONE',  ( 0.0000000000000000000, -1.000000000000000000, 0.0000000000000000000 ) ) ;
#99 = PERSON ( 'UNSPECIFIED', 'UNSPECIFIED', 'UNSPECIFIED', ('UNSPECIFIED'), ('UNSPECIFIED'), ('UNSPECIFIED') ) ;
#100 = AXIS2_PLACEMENT_3D ( 'NONE', #213, #24, #81 ) ;
#101 = PERSON_AND_ORGANIZATION_ROLE ( 'design_owner' ) ;
#102 = AXIS2_PLACEMENT_3D ( 'NONE', #195, #232, #42 ) ;
#103 = PERSON_AND_ORGANIZATION_ROLE ( 'creator' ) ;
#104 = APPROVAL_DATE_TIME ( #166, #240 ) ;
#105 = ORIENTED_EDGE ( 'NONE', *, *, #52, .T. ) ;
#106 = EDGE_LOOP ( 'NONE', ( #110 ) ) ;
#107 = CIRCLE ( 'NONE', #149, 1.199999999999996847 ) ;
#108 = DATE_AND_TIME ( #222, #183 ) ;
#109 = APPLICATION_CONTEXT ( 'configuration controlled 3d designs of mechanical parts and assemblies' ) ;
#110 = ORIENTED_EDGE ( 'NONE', *, *, #27, .F. ) ;
#111 = APPROVAL ( #203, 'UNSPECIFIED' ) ;
#112 = DIRECTION ( 'NONE',  ( 3.491481338843133355E-15, -1.219242935835426903E-16, 1.000000000000000000 ) ) ;
#113 = CARTESIAN_POINT ( 'NONE',  ( 6.110092342975482583E-15, -2.529805069132850746E-16, 1.749999999999999778 ) ) ;
#114 = DIRECTION ( 'NONE',  ( -4.275831445896958607E-31, -1.000000000000000000, -1.224646799147353207E-16 ) ) ;
#115 = CIRCLE ( 'NONE', #205, 0.3500000000000002554 ) ;
#116 = FACE_OUTER_BOUND ( 'NONE', #202, .T. ) ;
#117 = ADVANCED_FACE ( 'NONE', ( #78, #137 ), #67, .T. ) ;
#118 = DIRECTION ( 'NONE',  ( -4.275831445896958607E-31, -1.000000000000000000, -1.224646799147353207E-16 ) ) ;
#119 = CARTESIAN_POINT ( 'NONE',  ( 6.110092342975480216E-15, -2.133675137711996094E-16, 1.749999999999999112 ) ) ;
#120 = AXIS2_PLACEMENT_3D ( 'NONE', #96, #191, #29 ) ;
#121 = CC_DESIGN_APPROVAL ( #111, ( #142 ) ) ;
#122 = VERTEX_POINT ( 'NONE', #181 ) ;
#123 = PERSON_AND_ORGANIZATION ( #99, #82 ) ;
#124 = EDGE_CURVE ( 'NONE', #68, #68, #157, .T. ) ;
#125 = APPROVAL_STATUS ( 'not_yet_approved' ) ;
#126 = LOCAL_TIME ( 16, 36, 6.000000000000000000, #223 ) ;
#127 = EDGE_LOOP ( 'NONE', ( #75 ) ) ;
#128 = SECURITY_CLASSIFICATION_LEVEL ( 'unclassified' ) ;
#129 = EDGE_LOOP ( 'NONE', ( #239 ) ) ;
#130 = PRODUCT ( '966064', '966064', '', ( #30 ) ) ;
#131 = CC_DESIGN_DATE_AND_TIME_ASSIGNMENT ( #18, #92, ( #142 ) ) ;
#132 = ORIENTED_EDGE ( 'NONE', *, *, #124, .T. ) ;
#133 = TOROIDAL_SURFACE ( 'NONE', #25, 2.350000000000000089, 2.000000000000000000 ) ;
#134 = DESIGN_CONTEXT ( 'detailed design', #109, 'design' ) ;
#135 = DIRECTION ( 'NONE',  ( -3.491481338843133355E-15, 1.224646799147353207E-16, -1.000000000000000000 ) ) ;
#136 = FACE_OUTER_BOUND ( 'NONE', #209, .T. ) ;
#137 = FACE_BOUND ( 'NONE', #16, .T. ) ;
#138 = CIRCLE ( 'NONE', #97, 1.499999999999994671 ) ;
#139 = FACE_OUTER_BOUND ( 'NONE', #17, .T. ) ;
#140 = CARTESIAN_POINT ( 'NONE',  ( 1.316288464743861212E-13, 1.499999999999992228, 37.69999999999999574 ) ) ;
#141 = AXIS2_PLACEMENT_3D ( 'NONE', #62, #215, #190 ) ;
#142 = SECURITY_CLASSIFICATION ( '', '', #128 ) ;
#143 = DATE_AND_TIME ( #66, #45 ) ;
#144 = APPLICATION_PROTOCOL_DEFINITION ( 'international standard', 'config_control_design', 1994, #228 ) ;
#145 = DIRECTION ( 'NONE',  ( 3.491481338843133355E-15, -1.219242935835426903E-16, 1.000000000000000000 ) ) ;
#146 = CIRCLE ( 'NONE', #100, 0.4181483474218603558 ) ;
#147 = PERSON_AND_ORGANIZATION ( #99, #82 ) ;
#148 = ADVANCED_FACE ( 'NONE', ( #116 ), #95, .F. ) ;
#149 = AXIS2_PLACEMENT_3D ( 'NONE', #153, #135, #79 ) ;
#150 = PERSON_AND_ORGANIZATION_ROLE ( 'design_supplier' ) ;
#151 = ORIENTED_EDGE ( 'NONE', *, *, #159, .T. ) ;
#152 = FACE_OUTER_BOUND ( 'NONE', #91, .T. ) ;
#153 = CARTESIAN_POINT ( 'NONE',  ( 1.326762908760390423E-13, -4.653657836759941941E-15, 38.00000000000000000 ) ) ;
#154 = FACE_OUTER_BOUND ( 'NONE', #94, .T. ) ;
#155 = CARTESIAN_POINT ( 'NONE',  ( 0.0000000000000000000, 0.0000000000000000000, 0.0000000000000000000 ) ) ;
#156 = DIRECTION ( 'NONE',  ( -4.275831445896958607E-31, -1.000000000000000000, -1.224646799147353207E-16 ) ) ;
#157 = CIRCLE ( 'NONE', #72, 1.499999999999996669 ) ;
#158 = CARTESIAN_POINT ( 'NONE',  ( 6.110092342975480216E-15, 0.0000000000000000000, 1.749999999999999112 ) ) ;
#159 = EDGE_CURVE ( 'NONE', #122, #122, #115, .T. ) ;
#160 = CARTESIAN_POINT ( 'NONE',  ( 1.326762908760390423E-13, 1.199999999999992406, 38.00000000000000000 ) ) ;
#161 = APPROVAL_ROLE ( '' ) ;
#162 = AXIS2_PLACEMENT_3D ( 'NONE', #113, #227, #156 ) ;
#163 = CC_DESIGN_PERSON_AND_ORGANIZATION_ASSIGNMENT ( #206, #71, ( #55 ) ) ;
#164 = PERSON_AND_ORGANIZATION ( #99, #82 ) ;
#165 = MANIFOLD_SOLID_BREP ( 'Corps-Déplacer/Copier1[2]', #3 ) ;
#166 = DATE_AND_TIME ( #88, #38 ) ;
#167 = ORIENTED_EDGE ( 'NONE', *, *, #218, .F. ) ;
#168 = EDGE_LOOP ( 'NONE', ( #151 ) ) ;
#169 = EDGE_CURVE ( 'NONE', #196, #196, #138, .T. ) ;
#170 = COORDINATED_UNIVERSAL_TIME_OFFSET ( 1, 0, .AHEAD. ) ;
#171 = ORIENTED_EDGE ( 'NONE', *, *, #6, .F. ) ;
#172 = AXIS2_PLACEMENT_3D ( 'NONE', #65, #12, #238 ) ;
#173 = CARTESIAN_POINT ( 'NONE',  ( 6.110092342975480216E-15, -2.133675137711996094E-16, 1.749999999999999112 ) ) ;
#174 = DIRECTION ( 'NONE',  ( 0.0000000000000000000, -1.000000000000000000, 0.0000000000000000000 ) ) ;
#175 = CC_DESIGN_DATE_AND_TIME_ASSIGNMENT ( #14, #86, ( #207 ) ) ;
#176 = FACE_OUTER_BOUND ( 'NONE', #168, .T. ) ;
#177 = UNCERTAINTY_MEASURE_WITH_UNIT (LENGTH_MEASURE( 1.000000000000000082E-05 ), #64, 'distance_accuracy_value', 'NONE');
#178 = CARTESIAN_POINT ( 'NONE',  ( 6.110092342975482583E-15, -2.529805069132850746E-16, 1.749999999999999778 ) ) ;
#179 = CARTESIAN_POINT ( 'NONE',  ( 1.316288464743861212E-13, -4.616918432785521081E-15, 37.69999999999999574 ) ) ;
#180 = VERTEX_POINT ( 'NONE', #49 ) ;
#181 = CARTESIAN_POINT ( 'NONE',  ( 6.110092342975480216E-15, -0.3500000000000004774, 1.749999999999999112 ) ) ;
#182 = CIRCLE ( 'NONE', #89, 0.3500000000000000333 ) ;
#183 = LOCAL_TIME ( 16, 36, 6.000000000000000000, #185 ) ;
#184 = COORDINATED_UNIVERSAL_TIME_OFFSET ( 1, 0, .AHEAD. ) ;
#185 = COORDINATED_UNIVERSAL_TIME_OFFSET ( 1, 0, .AHEAD. ) ;
#186 = ADVANCED_FACE ( 'NONE', ( #154 ), #231, .F. ) ;
#187 = EDGE_LOOP ( 'NONE', ( #36 ) ) ;
#188 = AXIS2_PLACEMENT_3D ( 'NONE', #119, #236, #197 ) ;
#189 = APPROVAL_PERSON_ORGANIZATION ( #164, #240, #241 ) ;
#190 = DIRECTION ( 'NONE',  ( 0.0000000000000000000, -1.000000000000000000, 0.0000000000000000000 ) ) ;
#191 = DIRECTION ( 'NONE',  ( -3.491481338843133355E-15, 1.224646799147353207E-16, -1.000000000000000000 ) ) ;
#192 = CYLINDRICAL_SURFACE ( 'NONE', #237, 0.3500000000000001443 ) ;
#193 = CARTESIAN_POINT ( 'NONE',  ( 1.326762908760390423E-13, -4.653657836759941941E-15, 38.00000000000000000 ) ) ;
#194 = ADVANCED_FACE ( 'NONE', ( #7, #28 ), #192, .T. ) ;
#195 = CARTESIAN_POINT ( 'NONE',  ( 0.0000000000000000000, 0.0000000000000000000, 0.0000000000000000000 ) ) ;
#196 = VERTEX_POINT ( 'NONE', #84 ) ;
#197 = DIRECTION ( 'NONE',  ( 0.0000000000000000000, -1.000000000000000000, 0.0000000000000000000 ) ) ;
#198 = CC_DESIGN_PERSON_AND_ORGANIZATION_ASSIGNMENT ( #51, #101, ( #130 ) ) ;
#199 = PERSON_AND_ORGANIZATION ( #99, #82 ) ;
#200 = APPROVAL_PERSON_ORGANIZATION ( #123, #211, #161 ) ;
#201 = APPROVAL_STATUS ( 'not_yet_approved' ) ;
#202 = EDGE_LOOP ( 'NONE', ( #56 ) ) ;
#203 = APPROVAL_STATUS ( 'not_yet_approved' ) ;
#204 = FACE_OUTER_BOUND ( 'NONE', #40, .T. ) ;
#205 = AXIS2_PLACEMENT_3D ( 'NONE', #173, #112, #174 ) ;
#206 = PERSON_AND_ORGANIZATION ( #99, #82 ) ;
#207 = PRODUCT_DEFINITION ( 'UNKNOWN', '', #55, #134 ) ;
#208 = PERSON_AND_ORGANIZATION ( #99, #82 ) ;
#209 = EDGE_LOOP ( 'NONE', ( #132 ) ) ;
#210 = DIRECTION ( 'NONE',  ( 3.491481338843133355E-15, -1.224646799147353207E-16, 1.000000000000000000 ) ) ;
#211 = APPROVAL ( #125, 'UNSPECIFIED' ) ;
#212 = DIRECTION ( 'NONE',  ( 3.491481338843133355E-15, -1.224646799147353207E-16, 1.000000000000000000 ) ) ;
#213 = CARTESIAN_POINT ( 'NONE',  ( 7.917416075200738175E-15, -2.764801722513818837E-16, 2.267638090205028156 ) ) ;
#214 = ADVANCED_FACE ( 'NONE', ( #176, #61 ), #133, .F. ) ;
#215 = DIRECTION ( 'NONE',  ( 3.491481338843133355E-15, -1.219242935835426903E-16, 1.000000000000000000 ) ) ;
#216 = APPROVAL_DATE_TIME ( #143, #211 ) ;
#217 = CARTESIAN_POINT ( 'NONE',  ( 7.917416075200738175E-15, -0.4181483474218606333, 2.267638090205028156 ) ) ;
#218 = EDGE_CURVE ( 'NONE', #48, #48, #54, .T. ) ;
#219 = CC_DESIGN_APPROVAL ( #240, ( #55 ) ) ;
#220 = PERSON_AND_ORGANIZATION_ROLE ( 'classification_officer' ) ;
#221 = EDGE_LOOP ( 'NONE', ( #167 ) ) ;
#222 = CALENDAR_DATE ( 2021, 16, 11 ) ;
#223 = COORDINATED_UNIVERSAL_TIME_OFFSET ( 1, 0, .AHEAD. ) ;
#224 = AXIS2_PLACEMENT_3D ( 'NONE', #193, #60, #230 ) ;
#225 = SHAPE_DEFINITION_REPRESENTATION ( #37, #13 ) ;
#226 = ORIENTED_EDGE ( 'NONE', *, *, #218, .T. ) ;
#227 = DIRECTION ( 'NONE',  ( 3.491481338843133355E-15, -1.224646799147353207E-16, 1.000000000000000000 ) ) ;
#228 = APPLICATION_CONTEXT ( 'configuration controlled 3d designs of mechanical parts and assemblies' ) ;
#229 = AXIS2_PLACEMENT_3D ( 'NONE', #43, #210, #118 ) ;
#230 = DIRECTION ( 'NONE',  ( 0.0000000000000000000, 1.000000000000000000, 0.0000000000000000000 ) ) ;
#231 = PLANE ( 'NONE',  #32 ) ;
#232 = DIRECTION ( 'NONE',  ( -3.491481338843133355E-15, 1.224646799147353207E-16, -1.000000000000000000 ) ) ;
#233 = FACE_BOUND ( 'NONE', #129, .T. ) ;
#234 = CLOSED_SHELL ( 'NONE', ( #63, #117, #148, #10, #214, #186 ) ) ;
#235 = DIRECTION ( 'NONE',  ( -4.318010611786305654E-31, -1.000000000000000000, -1.219242935835426903E-16 ) ) ;
#236 = DIRECTION ( 'NONE',  ( 3.491481338843133355E-15, -1.219242935835426903E-16, 1.000000000000000000 ) ) ;
#237 = AXIS2_PLACEMENT_3D ( 'NONE', #155, #5, #26 ) ;
#238 = DIRECTION ( 'NONE',  ( 1.000000000000000000, 0.0000000000000000000, 0.0000000000000000000 ) ) ;
#239 = ORIENTED_EDGE ( 'NONE', *, *, #27, .T. ) ;
#240 = APPROVAL ( #201, 'UNSPECIFIED' ) ;
#241 = APPROVAL_ROLE ( '' ) ;
#242 = PERSON_AND_ORGANIZATION ( #99, #82 ) ;
#243 = EDGE_LOOP ( 'NONE', ( #19 ) ) ;
ENDSEC;
END-ISO-10303-21;
