ISO-10303-21;
HEADER;
FILE_DESCRIPTION (( 'STEP AP203' ),
    '1' );
FILE_NAME ('966063.step',
    '2021-11-16T15:36:06',
    ( '' ),
    ( '' ),
    'SwSTEP 2.0',
    'SolidWorks 2019',
    '' );
FILE_SCHEMA (( 'CONFIG_CONTROL_DESIGN' ));
ENDSEC;

DATA;
#1 = DATE_AND_TIME ( #206, #243 ) ;
#2 = AXIS2_PLACEMENT_3D ( 'NONE', #29, #126, #123 ) ;
#3 = AXIS2_PLACEMENT_3D ( 'NONE', #14, #163, #218 ) ;
#4 = COORDINATED_UNIVERSAL_TIME_OFFSET ( 1, 0, .AHEAD. ) ;
#5 = CC_DESIGN_PERSON_AND_ORGANIZATION_ASSIGNMENT ( #140, #58, ( #110 ) ) ;
#6 = DIRECTION ( 'NONE',  ( 0.0000000000000000000, 0.0000000000000000000, 1.000000000000000000 ) ) ;
#7 = ORIENTED_EDGE ( 'NONE', *, *, #69, .F. ) ;
#8 = ORIENTED_EDGE ( 'NONE', *, *, #151, .T. ) ;
#9 = DATE_AND_TIME ( #194, #210 ) ;
#10 = CARTESIAN_POINT ( 'NONE',  ( 1.326762908760390423E-13, -4.653657836759941941E-15, 38.00000000000000000 ) ) ;
#11 = DIRECTION ( 'NONE',  ( 3.491481338843133355E-15, -1.224646799147353207E-16, 1.000000000000000000 ) ) ;
#12 = DIRECTION ( 'NONE',  ( 0.0000000000000000000, 1.000000000000000000, 0.0000000000000000000 ) ) ;
#13 = DIRECTION ( 'NONE',  ( -4.275831445896958607E-31, -1.000000000000000000, -1.224646799147353207E-16 ) ) ;
#14 = CARTESIAN_POINT ( 'NONE',  ( 0.0000000000000000000, 0.0000000000000000000, 0.0000000000000000000 ) ) ;
#15 = CONICAL_SURFACE ( 'NONE', #65, 2.499999999999995559, 0.2617993877991428575 ) ;
#16 = VERTEX_POINT ( 'NONE', #224 ) ;
#17 = AXIS2_PLACEMENT_3D ( 'NONE', #149, #213, #12 ) ;
#18 = PERSON ( 'UNSPECIFIED', 'UNSPECIFIED', 'UNSPECIFIED', ('UNSPECIFIED'), ('UNSPECIFIED'), ('UNSPECIFIED') ) ;
#19 = APPROVAL_DATE_TIME ( #135, #211 ) ;
#20 = EDGE_LOOP ( 'NONE', ( #121 ) ) ;
#21 = PERSON_AND_ORGANIZATION ( #18, #76 ) ;
#22 = AXIS2_PLACEMENT_3D ( 'NONE', #30, #83, #165 ) ;
#23 = PRODUCT_DEFINITION ( 'UNKNOWN', '', #110, #242 ) ;
#24 = AXIS2_PLACEMENT_3D ( 'NONE', #49, #178, #63 ) ;
#25 = PERSON_AND_ORGANIZATION_ROLE ( 'classification_officer' ) ;
#26 = AXIS2_PLACEMENT_3D ( 'NONE', #70, #6, #132 ) ;
#27 = FACE_OUTER_BOUND ( 'NONE', #230, .T. ) ;
#28 = APPROVAL_DATE_TIME ( #93, #168 ) ;
#29 = CARTESIAN_POINT ( 'NONE',  ( 1.326762908760390423E-13, -4.653657836759941941E-15, 38.00000000000000000 ) ) ;
#30 = CARTESIAN_POINT ( 'NONE',  ( 0.0000000000000000000, 0.0000000000000000000, 0.0000000000000000000 ) ) ;
#31 = ADVANCED_FACE ( 'NONE', ( #138, #208 ), #225, .F. ) ;
#32 = DIRECTION ( 'NONE',  ( 4.275831445896958607E-31, 1.000000000000000000, 1.224646799147353207E-16 ) ) ;
#33 = FACE_OUTER_BOUND ( 'NONE', #231, .T. ) ;
#34 =( GEOMETRIC_REPRESENTATION_CONTEXT ( 3 ) GLOBAL_UNCERTAINTY_ASSIGNED_CONTEXT ( ( #88 ) ) GLOBAL_UNIT_ASSIGNED_CONTEXT ( ( #204, #107, #117 ) ) REPRESENTATION_CONTEXT ( 'NONE', 'WORKASPACE' ) );
#35 = PERSON_AND_ORGANIZATION ( #18, #76 ) ;
#36 = MANIFOLD_SOLID_BREP ( 'Corps-Déplacer/Copier1[2]', #59 ) ;
#37 = ADVANCED_BREP_SHAPE_REPRESENTATION ( '966063', ( #115, #36, #26 ), #34 ) ;
#38 = CC_DESIGN_PERSON_AND_ORGANIZATION_ASSIGNMENT ( #78, #228, ( #110 ) ) ;
#39 = DATE_TIME_ROLE ( 'creation_date' ) ;
#40 = EDGE_LOOP ( 'NONE', ( #7 ) ) ;
#41 = CARTESIAN_POINT ( 'NONE',  ( 5.935518276033323549E-15, -0.3250000000000001776, 1.699999999999999067 ) ) ;
#42 = ORIENTED_EDGE ( 'NONE', *, *, #129, .F. ) ;
#43 = EDGE_LOOP ( 'NONE', ( #172 ) ) ;
#44 = AXIS2_PLACEMENT_3D ( 'NONE', #82, #193, #32 ) ;
#45 = DIRECTION ( 'NONE',  ( 0.0000000000000000000, -1.000000000000000000, 0.0000000000000000000 ) ) ;
#46 = SECURITY_CLASSIFICATION_LEVEL ( 'unclassified' ) ;
#47 = EDGE_CURVE ( 'NONE', #16, #16, #72, .T. ) ;
#48 = FACE_OUTER_BOUND ( 'NONE', #190, .T. ) ;
#49 = CARTESIAN_POINT ( 'NONE',  ( 5.935518276033323549E-15, 0.0000000000000000000, 1.699999999999999067 ) ) ;
#50 = CARTESIAN_POINT ( 'NONE',  ( 7.742842008258579929E-15, -2.703839575722047788E-16, 2.217638090205027890 ) ) ;
#51 = PRODUCT_DEFINITION_SHAPE ( 'NONE', 'NONE',  #23 ) ;
#52 = VERTEX_POINT ( 'NONE', #166 ) ;
#53 = VERTEX_POINT ( 'NONE', #155 ) ;
#54 = APPROVAL_ROLE ( '' ) ;
#55 = ORIENTED_EDGE ( 'NONE', *, *, #47, .F. ) ;
#56 = APPROVAL_DATE_TIME ( #234, #162 ) ;
#57 = EDGE_LOOP ( 'NONE', ( #134 ) ) ;
#58 = PERSON_AND_ORGANIZATION_ROLE ( 'creator' ) ;
#59 = CLOSED_SHELL ( 'NONE', ( #241, #125, #175 ) ) ;
#60 = DIRECTION ( 'NONE',  ( -3.491481338843133355E-15, 1.219242935835426903E-16, -1.000000000000000000 ) ) ;
#61 = CC_DESIGN_DATE_AND_TIME_ASSIGNMENT ( #1, #39, ( #23 ) ) ;
#62 = FACE_OUTER_BOUND ( 'NONE', #119, .T. ) ;
#63 = DIRECTION ( 'NONE',  ( -4.318363482617522516E-31, -1.000000000000000000, -1.219242935835426903E-16 ) ) ;
#64 = FACE_OUTER_BOUND ( 'NONE', #94, .T. ) ;
#65 = AXIS2_PLACEMENT_3D ( 'NONE', #239, #67, #144 ) ;
#66 = AXIS2_PLACEMENT_3D ( 'NONE', #214, #198, #98 ) ;
#67 = DIRECTION ( 'NONE',  ( 3.491481338843133355E-15, -1.219242935835426903E-16, 1.000000000000000000 ) ) ;
#68 = CARTESIAN_POINT ( 'NONE',  ( 5.935518276033323549E-15, -0.3250000000000001776, 1.699999999999999067 ) ) ;
#69 = EDGE_CURVE ( 'NONE', #53, #53, #89, .T. ) ;
#70 = CARTESIAN_POINT ( 'NONE',  ( 0.0000000000000000000, 0.0000000000000000000, 0.0000000000000000000 ) ) ;
#71 = CARTESIAN_POINT ( 'NONE',  ( 5.935518276033325915E-15, -2.457524924300483455E-16, 1.699999999999999734 ) ) ;
#72 = CIRCLE ( 'NONE', #106, 1.499999999999994671 ) ;
#73 = PERSON_AND_ORGANIZATION ( #18, #76 ) ;
#74 = ADVANCED_FACE ( 'NONE', ( #27 ), #147, .F. ) ;
#75 = SHAPE_DEFINITION_REPRESENTATION ( #51, #37 ) ;
#76 = ORGANIZATION ( 'UNSPECIFIED', 'UNSPECIFIED', '' ) ;
#77 = EDGE_LOOP ( 'NONE', ( #153 ) ) ;
#78 = PERSON_AND_ORGANIZATION ( #18, #76 ) ;
#79 = FACE_OUTER_BOUND ( 'NONE', #43, .T. ) ;
#80 = EDGE_CURVE ( 'NONE', #207, #207, #217, .T. ) ;
#81 = CIRCLE ( 'NONE', #143, 0.3250000000000000111 ) ;
#82 = CARTESIAN_POINT ( 'NONE',  ( 1.326762908760390423E-13, 8.998558695971053960E-33, 38.00000000000000000 ) ) ;
#83 = DIRECTION ( 'NONE',  ( 3.491481338843133355E-15, -1.219242935835426903E-16, 1.000000000000000000 ) ) ;
#84 = FACE_BOUND ( 'NONE', #20, .T. ) ;
#85 = SECURITY_CLASSIFICATION ( '', '', #46 ) ;
#86 = ADVANCED_FACE ( 'NONE', ( #124 ), #103, .F. ) ;
#87 = PERSON_AND_ORGANIZATION_ROLE ( 'creator' ) ;
#88 = UNCERTAINTY_MEASURE_WITH_UNIT (LENGTH_MEASURE( 1.000000000000000082E-05 ), #204, 'distance_accuracy_value', 'NONE');
#89 = CIRCLE ( 'NONE', #2, 1.199999999999996847 ) ;
#90 = LOCAL_TIME ( 16, 36, 6.000000000000000000, #95 ) ;
#91 = APPROVAL_STATUS ( 'not_yet_approved' ) ;
#92 = ORIENTED_EDGE ( 'NONE', *, *, #80, .T. ) ;
#93 = DATE_AND_TIME ( #189, #96 ) ;
#94 = EDGE_LOOP ( 'NONE', ( #55 ) ) ;
#95 = COORDINATED_UNIVERSAL_TIME_OFFSET ( 1, 0, .AHEAD. ) ;
#96 = LOCAL_TIME ( 16, 36, 6.000000000000000000, #4 ) ;
#97 = AXIS2_PLACEMENT_3D ( 'NONE', #10, #177, #197 ) ;
#98 = DIRECTION ( 'NONE',  ( 0.0000000000000000000, -1.000000000000000000, 0.0000000000000000000 ) ) ;
#99 = PERSON_AND_ORGANIZATION ( #18, #76 ) ;
#100 = CARTESIAN_POINT ( 'NONE',  ( 5.935518276033325915E-15, -2.457524924300483455E-16, 1.699999999999999734 ) ) ;
#101 = PERSON_AND_ORGANIZATION ( #18, #76 ) ;
#102 = AXIS2_PLACEMENT_3D ( 'NONE', #105, #183, #161 ) ;
#103 = PLANE ( 'NONE',  #44 ) ;
#104 = DIRECTION ( 'NONE',  ( 3.491481338843133355E-15, -1.219242935835426903E-16, 1.000000000000000000 ) ) ;
#105 = CARTESIAN_POINT ( 'NONE',  ( -4.275811853558651348E-31, 1.499752910594655314E-32, -1.224641187678636516E-16 ) ) ;
#106 = AXIS2_PLACEMENT_3D ( 'NONE', #232, #60, #145 ) ;
#107 =( NAMED_UNIT ( * ) PLANE_ANGLE_UNIT ( ) SI_UNIT ( $, .RADIAN. ) );
#108 = CIRCLE ( 'NONE', #216, 0.3250000000000000111 ) ;
#109 = CC_DESIGN_PERSON_AND_ORGANIZATION_ASSIGNMENT ( #226, #87, ( #23 ) ) ;
#110 = PRODUCT_DEFINITION_FORMATION_WITH_SPECIFIED_SOURCE ( 'ANY', '', #222, .NOT_KNOWN. ) ;
#111 = ADVANCED_FACE ( 'NONE', ( #164, #127 ), #176, .T. ) ;
#112 = VERTEX_POINT ( 'NONE', #173 ) ;
#113 = APPROVAL_STATUS ( 'not_yet_approved' ) ;
#114 = APPLICATION_CONTEXT ( 'configuration controlled 3d designs of mechanical parts and assemblies' ) ;
#115 = MANIFOLD_SOLID_BREP ( 'Corps-Déplacer/Copier1[1]', #192 ) ;
#116 = DIRECTION ( 'NONE',  ( 3.491481338843133355E-15, -1.224646799147353207E-16, 1.000000000000000000 ) ) ;
#117 =( NAMED_UNIT ( * ) SI_UNIT ( $, .STERADIAN. ) SOLID_ANGLE_UNIT ( ) );
#118 = EDGE_CURVE ( 'NONE', #112, #112, #148, .T. ) ;
#119 = EDGE_LOOP ( 'NONE', ( #209 ) ) ;
#120 = APPROVAL_STATUS ( 'not_yet_approved' ) ;
#121 = ORIENTED_EDGE ( 'NONE', *, *, #118, .T. ) ;
#122 = DIRECTION ( 'NONE',  ( 3.491481338843133355E-15, -1.219242935835426903E-16, 1.000000000000000000 ) ) ;
#123 = DIRECTION ( 'NONE',  ( 0.0000000000000000000, 1.000000000000000000, 0.0000000000000000000 ) ) ;
#124 = FACE_OUTER_BOUND ( 'NONE', #40, .T. ) ;
#125 = ADVANCED_FACE ( 'NONE', ( #182, #48 ), #236, .T. ) ;
#126 = DIRECTION ( 'NONE',  ( -3.491481338843133355E-15, 1.224646799147353207E-16, -1.000000000000000000 ) ) ;
#127 = FACE_BOUND ( 'NONE', #57, .T. ) ;
#128 = APPLICATION_PROTOCOL_DEFINITION ( 'international standard', 'config_control_design', 1994, #114 ) ;
#129 = EDGE_CURVE ( 'NONE', #150, #150, #81, .T. ) ;
#130 = ADVANCED_FACE ( 'NONE', ( #79, #64 ), #181, .T. ) ;
#131 = APPROVAL_PERSON_ORGANIZATION ( #21, #168, #171 ) ;
#132 = DIRECTION ( 'NONE',  ( 1.000000000000000000, 0.0000000000000000000, 0.0000000000000000000 ) ) ;
#133 = APPLICATION_PROTOCOL_DEFINITION ( 'international standard', 'config_control_design', 1994, #141 ) ;
#134 = ORIENTED_EDGE ( 'NONE', *, *, #69, .T. ) ;
#135 = DATE_AND_TIME ( #200, #180 ) ;
#136 = EDGE_LOOP ( 'NONE', ( #174 ) ) ;
#137 = APPROVAL_PERSON_ORGANIZATION ( #35, #211, #54 ) ;
#138 = FACE_OUTER_BOUND ( 'NONE', #188, .T. ) ;
#139 = DATE_TIME_ROLE ( 'classification_date' ) ;
#140 = PERSON_AND_ORGANIZATION ( #18, #76 ) ;
#141 = APPLICATION_CONTEXT ( 'configuration controlled 3d designs of mechanical parts and assemblies' ) ;
#142 = CALENDAR_DATE ( 2021, 16, 11 ) ;
#143 = AXIS2_PLACEMENT_3D ( 'NONE', #237, #122, #196 ) ;
#144 = DIRECTION ( 'NONE',  ( 0.0000000000000000000, -1.000000000000000000, 0.0000000000000000000 ) ) ;
#145 = DIRECTION ( 'NONE',  ( 0.0000000000000000000, -1.000000000000000000, 0.0000000000000000000 ) ) ;
#146 = AXIS2_PLACEMENT_3D ( 'NONE', #71, #116, #184 ) ;
#147 = PLANE ( 'NONE',  #201 ) ;
#148 = CIRCLE ( 'NONE', #185, 0.3931483474218600560 ) ;
#149 = CARTESIAN_POINT ( 'NONE',  ( 1.316288464743861212E-13, -4.616918432785521081E-15, 37.69999999999999574 ) ) ;
#150 = VERTEX_POINT ( 'NONE', #186 ) ;
#151 = EDGE_CURVE ( 'NONE', #223, #223, #108, .T. ) ;
#152 = PERSON_AND_ORGANIZATION_ROLE ( 'design_owner' ) ;
#153 = ORIENTED_EDGE ( 'NONE', *, *, #215, .F. ) ;
#154 = CC_DESIGN_PERSON_AND_ORGANIZATION_ASSIGNMENT ( #101, #25, ( #85 ) ) ;
#155 = CARTESIAN_POINT ( 'NONE',  ( 1.326762908760390423E-13, 1.199999999999992406, 38.00000000000000000 ) ) ;
#156 = EDGE_LOOP ( 'NONE', ( #227 ) ) ;
#157 = CIRCLE ( 'NONE', #17, 1.499999999999996669 ) ;
#158 = EDGE_LOOP ( 'NONE', ( #92 ) ) ;
#159 = COORDINATED_UNIVERSAL_TIME_OFFSET ( 1, 0, .AHEAD. ) ;
#160 = DIRECTION ( 'NONE',  ( 3.491481338843133355E-15, -1.219242935835426903E-16, 1.000000000000000000 ) ) ;
#161 = DIRECTION ( 'NONE',  ( -4.275831445896958607E-31, -1.000000000000000000, -1.224646799147353207E-16 ) ) ;
#162 = APPROVAL ( #120, 'UNSPECIFIED' ) ;
#163 = DIRECTION ( 'NONE',  ( -3.491481338843133355E-15, 1.224646799147353207E-16, -1.000000000000000000 ) ) ;
#164 = FACE_OUTER_BOUND ( 'NONE', #77, .T. ) ;
#165 = DIRECTION ( 'NONE',  ( -4.256963957985708013E-31, -1.000000000000000000, -1.219242935835426903E-16 ) ) ;
#166 = CARTESIAN_POINT ( 'NONE',  ( 1.316288464743861212E-13, 1.499999999999992228, 37.69999999999999574 ) ) ;
#167 = COORDINATED_UNIVERSAL_TIME_OFFSET ( 1, 0, .AHEAD. ) ;
#168 = APPROVAL ( #91, 'UNSPECIFIED' ) ;
#169 = ORIENTED_EDGE ( 'NONE', *, *, #80, .F. ) ;
#170 = CC_DESIGN_APPROVAL ( #168, ( #110 ) ) ;
#171 = APPROVAL_ROLE ( '' ) ;
#172 = ORIENTED_EDGE ( 'NONE', *, *, #215, .T. ) ;
#173 = CARTESIAN_POINT ( 'NONE',  ( 7.742842008258579929E-15, -0.3931483474218603336, 2.217638090205027890 ) ) ;
#174 = ORIENTED_EDGE ( 'NONE', *, *, #118, .F. ) ;
#175 = ADVANCED_FACE ( 'NONE', ( #33 ), #212, .F. ) ;
#176 = CONICAL_SURFACE ( 'NONE', #97, 1.199999999999996847, 0.7853981633974453924 ) ;
#177 = DIRECTION ( 'NONE',  ( -3.491481338843133355E-15, 1.224646799147353207E-16, -1.000000000000000000 ) ) ;
#178 = DIRECTION ( 'NONE',  ( 3.491481338843133355E-15, -1.219242935835426903E-16, 1.000000000000000000 ) ) ;
#179 = ADVANCED_FACE ( 'NONE', ( #84, #62 ), #15, .T. ) ;
#180 = LOCAL_TIME ( 16, 36, 6.000000000000000000, #187 ) ;
#181 = CYLINDRICAL_SURFACE ( 'NONE', #3, 1.499999999999994671 ) ;
#182 = FACE_OUTER_BOUND ( 'NONE', #156, .T. ) ;
#183 = DIRECTION ( 'NONE',  ( 3.491481338843133355E-15, -1.224646799147353207E-16, 1.000000000000000000 ) ) ;
#184 = DIRECTION ( 'NONE',  ( -4.275831445896958607E-31, -1.000000000000000000, -1.224646799147353207E-16 ) ) ;
#185 = AXIS2_PLACEMENT_3D ( 'NONE', #50, #104, #235 ) ;
#186 = CARTESIAN_POINT ( 'NONE',  ( -1.773239744865341412E-30, -0.3250000000000000111, -5.078760482371319459E-16 ) ) ;
#187 = COORDINATED_UNIVERSAL_TIME_OFFSET ( 1, 0, .AHEAD. ) ;
#188 = EDGE_LOOP ( 'NONE', ( #8 ) ) ;
#189 = CALENDAR_DATE ( 2021, 16, 11 ) ;
#190 = EDGE_LOOP ( 'NONE', ( #169 ) ) ;
#191 = APPROVAL_ROLE ( '' ) ;
#192 = CLOSED_SHELL ( 'NONE', ( #130, #111, #86, #179, #31, #74 ) ) ;
#193 = DIRECTION ( 'NONE',  ( -3.491481338843133355E-15, 1.224646799147353207E-16, -1.000000000000000000 ) ) ;
#194 = CALENDAR_DATE ( 2021, 16, 11 ) ;
#195 = CC_DESIGN_PERSON_AND_ORGANIZATION_ASSIGNMENT ( #73, #152, ( #222 ) ) ;
#196 = DIRECTION ( 'NONE',  ( -4.256963957985708013E-31, -1.000000000000000000, -1.219242935835425670E-16 ) ) ;
#197 = DIRECTION ( 'NONE',  ( 0.0000000000000000000, 1.000000000000000000, 0.0000000000000000000 ) ) ;
#198 = DIRECTION ( 'NONE',  ( 3.491481338843133355E-15, -1.219242935835426903E-16, 1.000000000000000000 ) ) ;
#199 = CARTESIAN_POINT ( 'NONE',  ( 5.935518276033323549E-15, -2.072712990920224551E-16, 1.699999999999999067 ) ) ;
#200 = CALENDAR_DATE ( 2021, 16, 11 ) ;
#201 = AXIS2_PLACEMENT_3D ( 'NONE', #100, #11, #13 ) ;
#202 = APPROVAL_PERSON_ORGANIZATION ( #99, #162, #191 ) ;
#203 = CC_DESIGN_DATE_AND_TIME_ASSIGNMENT ( #9, #139, ( #85 ) ) ;
#204 =( LENGTH_UNIT ( ) NAMED_UNIT ( * ) SI_UNIT ( .MILLI., .METRE. ) );
#205 = MECHANICAL_CONTEXT ( 'NONE', #141, 'mechanical' ) ;
#206 = CALENDAR_DATE ( 2021, 16, 11 ) ;
#207 = VERTEX_POINT ( 'NONE', #68 ) ;
#208 = FACE_OUTER_BOUND ( 'NONE', #136, .T. ) ;
#209 = ORIENTED_EDGE ( 'NONE', *, *, #47, .T. ) ;
#210 = LOCAL_TIME ( 16, 36, 6.000000000000000000, #159 ) ;
#211 = APPROVAL ( #113, 'UNSPECIFIED' ) ;
#212 = PLANE ( 'NONE',  #102 ) ;
#213 = DIRECTION ( 'NONE',  ( -3.491481338843133355E-15, 1.224646799147353207E-16, -1.000000000000000000 ) ) ;
#214 = CARTESIAN_POINT ( 'NONE',  ( 5.935518276033323549E-15, -2.072712990920224551E-16, 1.699999999999999067 ) ) ;
#215 = EDGE_CURVE ( 'NONE', #52, #52, #157, .T. ) ;
#216 = AXIS2_PLACEMENT_3D ( 'NONE', #199, #160, #45 ) ;
#217 = CIRCLE ( 'NONE', #66, 0.3250000000000000111 ) ;
#218 = DIRECTION ( 'NONE',  ( 4.275831445896958607E-31, 1.000000000000000000, 1.224646799147352961E-16 ) ) ;
#219 = FACE_OUTER_BOUND ( 'NONE', #158, .T. ) ;
#220 = PRODUCT_RELATED_PRODUCT_CATEGORY ( 'detail', '', ( #222 ) ) ;
#221 = CC_DESIGN_APPROVAL ( #162, ( #85 ) ) ;
#222 = PRODUCT ( '966063', '966063', '', ( #205 ) ) ;
#223 = VERTEX_POINT ( 'NONE', #41 ) ;
#224 = CARTESIAN_POINT ( 'NONE',  ( 2.216554600964398447E-14, -1.499999999999995559, 6.348464694068309377 ) ) ;
#225 = TOROIDAL_SURFACE ( 'NONE', #24, 2.324999999999999734, 2.000000000000000000 ) ;
#226 = PERSON_AND_ORGANIZATION ( #18, #76 ) ;
#227 = ORIENTED_EDGE ( 'NONE', *, *, #129, .T. ) ;
#228 = PERSON_AND_ORGANIZATION_ROLE ( 'design_supplier' ) ;
#229 = ORIENTED_EDGE ( 'NONE', *, *, #151, .F. ) ;
#230 = EDGE_LOOP ( 'NONE', ( #229 ) ) ;
#231 = EDGE_LOOP ( 'NONE', ( #42 ) ) ;
#232 = CARTESIAN_POINT ( 'NONE',  ( 2.216554600964398447E-14, -7.740320731643400975E-16, 6.348464694068309377 ) ) ;
#233 = CC_DESIGN_SECURITY_CLASSIFICATION ( #85, ( #110 ) ) ;
#234 = DATE_AND_TIME ( #142, #90 ) ;
#235 = DIRECTION ( 'NONE',  ( 0.0000000000000000000, -1.000000000000000000, 0.0000000000000000000 ) ) ;
#236 = CYLINDRICAL_SURFACE ( 'NONE', #22, 0.3250000000000000111 ) ;
#237 = CARTESIAN_POINT ( 'NONE',  ( -1.634888416230805766E-30, 5.709113006541365814E-32, -4.682506528224806652E-16 ) ) ;
#238 = CC_DESIGN_APPROVAL ( #211, ( #23 ) ) ;
#239 = CARTESIAN_POINT ( 'NONE',  ( 3.519593175988552489E-14, -1.229059731495077928E-15, 10.08051550163728827 ) ) ;
#240 = PLANE ( 'NONE',  #146 ) ;
#241 = ADVANCED_FACE ( 'NONE', ( #219 ), #240, .T. ) ;
#242 = DESIGN_CONTEXT ( 'detailed design', #114, 'design' ) ;
#243 = LOCAL_TIME ( 16, 36, 6.000000000000000000, #167 ) ;
ENDSEC;
END-ISO-10303-21;
