ISO-10303-21;
HEADER;
FILE_DESCRIPTION (( 'STEP AP203' ),
    '1' );
FILE_NAME ('966062.step',
    '2021-11-16T15:36:05',
    ( '' ),
    ( '' ),
    'SwSTEP 2.0',
    'SolidWorks 2019',
    '' );
FILE_SCHEMA (( 'CONFIG_CONTROL_DESIGN' ));
ENDSEC;

DATA;
#1 = CARTESIAN_POINT ( 'NONE',  ( 5.237222008264700033E-15, -2.168404344971014538E-16, 1.500000000000000000 ) ) ;
#2 = CARTESIAN_POINT ( 'NONE',  ( 7.044545740489955625E-15, -0.3681483474218604779, 2.017638090205028156 ) ) ;
#3 = LOCAL_TIME ( 16, 36, 5.000000000000000000, #103 ) ;
#4 = CARTESIAN_POINT ( 'NONE',  ( 5.237222008264697666E-15, -0.3000000000000002665, 1.499999999999999334 ) ) ;
#5 = SECURITY_CLASSIFICATION ( '', '', #82 ) ;
#6 = EDGE_LOOP ( 'NONE', ( #230 ) ) ;
#7 = CALENDAR_DATE ( 2021, 16, 11 ) ;
#8 = EDGE_CURVE ( 'NONE', #172, #172, #85, .T. ) ;
#9 = PERSON_AND_ORGANIZATION_ROLE ( 'creator' ) ;
#10 = LOCAL_TIME ( 16, 36, 5.000000000000000000, #216 ) ;
#11 = EDGE_CURVE ( 'NONE', #231, #231, #72, .T. ) ;
#12 = APPROVAL_STATUS ( 'not_yet_approved' ) ;
#13 = PERSON ( 'UNSPECIFIED', 'UNSPECIFIED', 'UNSPECIFIED', ('UNSPECIFIED'), ('UNSPECIFIED'), ('UNSPECIFIED') ) ;
#14 = DIRECTION ( 'NONE',  ( 0.0000000000000000000, -1.000000000000000000, 0.0000000000000000000 ) ) ;
#15 = CC_DESIGN_APPROVAL ( #123, ( #169 ) ) ;
#16 = DIRECTION ( 'NONE',  ( 3.491481338843133355E-15, -1.219242935835426903E-16, 1.000000000000000000 ) ) ;
#17 = CARTESIAN_POINT ( 'NONE',  ( 3.482339513587293326E-14, -1.216050564236637846E-15, 9.973816771826513161 ) ) ;
#18 = CARTESIAN_POINT ( 'NONE',  ( -4.275811853558651348E-31, 1.499752910594655314E-32, -1.224641187678636516E-16 ) ) ;
#19 = EDGE_CURVE ( 'NONE', #176, #176, #106, .T. ) ;
#20 = EDGE_LOOP ( 'NONE', ( #171 ) ) ;
#21 = DIRECTION ( 'NONE',  ( 0.0000000000000000000, 1.000000000000000000, 0.0000000000000000000 ) ) ;
#22 = AXIS2_PLACEMENT_3D ( 'NONE', #17, #126, #240 ) ;
#23 = DIRECTION ( 'NONE',  ( 0.0000000000000000000, 0.0000000000000000000, 1.000000000000000000 ) ) ;
#24 = ORIENTED_EDGE ( 'NONE', *, *, #11, .F. ) ;
#25 = DIRECTION ( 'NONE',  ( -3.491481338843133355E-15, 1.224646799147353207E-16, -1.000000000000000000 ) ) ;
#26 = EDGE_LOOP ( 'NONE', ( #143 ) ) ;
#27 = PERSON_AND_ORGANIZATION_ROLE ( 'classification_officer' ) ;
#28 = PERSON_AND_ORGANIZATION ( #13, #30 ) ;
#29 = ADVANCED_FACE ( 'NONE', ( #90, #219 ), #140, .T. ) ;
#30 = ORGANIZATION ( 'UNSPECIFIED', 'UNSPECIFIED', '' ) ;
#31 = PERSON_AND_ORGANIZATION ( #13, #30 ) ;
#32 = PRODUCT ( '966062', '966062', '', ( #57 ) ) ;
#33 = FACE_OUTER_BOUND ( 'NONE', #20, .T. ) ;
#34 = FACE_OUTER_BOUND ( 'NONE', #206, .T. ) ;
#35 = DIRECTION ( 'NONE',  ( 0.0000000000000000000, -1.000000000000000000, 0.0000000000000000000 ) ) ;
#36 = CC_DESIGN_PERSON_AND_ORGANIZATION_ASSIGNMENT ( #61, #27, ( #5 ) ) ;
#37 = PLANE ( 'NONE',  #188 ) ;
#38 = CARTESIAN_POINT ( 'NONE',  ( -1.751954925075412985E-30, -0.2999999999999999334, -5.017798335579549396E-16 ) ) ;
#39 = UNCERTAINTY_MEASURE_WITH_UNIT (LENGTH_MEASURE( 1.000000000000000082E-05 ), #131, 'distance_accuracy_value', 'NONE');
#40 = CARTESIAN_POINT ( 'NONE',  ( 5.237222008264697666E-15, -0.3000000000000002665, 1.499999999999999334 ) ) ;
#41 = AXIS2_PLACEMENT_3D ( 'NONE', #201, #108, #14 ) ;
#42 = APPROVAL_ROLE ( '' ) ;
#43 = ORIENTED_EDGE ( 'NONE', *, *, #217, .T. ) ;
#44 = EDGE_LOOP ( 'NONE', ( #155 ) ) ;
#45 = PERSON_AND_ORGANIZATION ( #13, #30 ) ;
#46 = DIRECTION ( 'NONE',  ( 3.491481338843133355E-15, -1.219242935835426903E-16, 1.000000000000000000 ) ) ;
#47 = DIRECTION ( 'NONE',  ( -3.491481338843133355E-15, 1.224646799147353207E-16, -1.000000000000000000 ) ) ;
#48 = ORIENTED_EDGE ( 'NONE', *, *, #94, .T. ) ;
#49 = PLANE ( 'NONE',  #99 ) ;
#50 = VERTEX_POINT ( 'NONE', #151 ) ;
#51 = LOCAL_TIME ( 16, 36, 5.000000000000000000, #122 ) ;
#52 = DIRECTION ( 'NONE',  ( -3.491481338843133355E-15, 1.224646799147353207E-16, -1.000000000000000000 ) ) ;
#53 = EDGE_LOOP ( 'NONE', ( #196 ) ) ;
#54 = PERSON_AND_ORGANIZATION ( #13, #30 ) ;
#55 = ORIENTED_EDGE ( 'NONE', *, *, #8, .T. ) ;
#56 = AXIS2_PLACEMENT_3D ( 'NONE', #182, #16, #35 ) ;
#57 = MECHANICAL_CONTEXT ( 'NONE', #116, 'mechanical' ) ;
#58 = ORIENTED_EDGE ( 'NONE', *, *, #11, .T. ) ;
#59 = CALENDAR_DATE ( 2021, 16, 11 ) ;
#60 = PRODUCT_DEFINITION ( 'UNKNOWN', '', #169, #93 ) ;
#61 = PERSON_AND_ORGANIZATION ( #13, #30 ) ;
#62 = ADVANCED_FACE ( 'NONE', ( #87, #200 ), #127, .T. ) ;
#63 = CARTESIAN_POINT ( 'NONE',  ( 1.326762908760390423E-13, -4.653657836759941941E-15, 38.00000000000000000 ) ) ;
#64 = DIRECTION ( 'NONE',  ( -3.491481338843133355E-15, 1.224646799147353207E-16, -1.000000000000000000 ) ) ;
#65 = CARTESIAN_POINT ( 'NONE',  ( 5.237222008264697666E-15, 0.0000000000000000000, 1.499999999999999334 ) ) ;
#66 = AXIS2_PLACEMENT_3D ( 'NONE', #110, #105, #187 ) ;
#67 = AXIS2_PLACEMENT_3D ( 'NONE', #190, #25, #21 ) ;
#68 = FACE_OUTER_BOUND ( 'NONE', #53, .T. ) ;
#69 = VERTEX_POINT ( 'NONE', #4 ) ;
#70 =( NAMED_UNIT ( * ) SI_UNIT ( $, .STERADIAN. ) SOLID_ANGLE_UNIT ( ) );
#71 = ADVANCED_FACE ( 'NONE', ( #220, #34 ), #159, .F. ) ;
#72 = CIRCLE ( 'NONE', #66, 0.3681483474218602003 ) ;
#73 = PERSON_AND_ORGANIZATION ( #13, #30 ) ;
#74 = DIRECTION ( 'NONE',  ( 1.000000000000000000, 0.0000000000000000000, 0.0000000000000000000 ) ) ;
#75 = SHAPE_DEFINITION_REPRESENTATION ( #163, #238 ) ;
#76 = CC_DESIGN_PERSON_AND_ORGANIZATION_ASSIGNMENT ( #197, #78, ( #169 ) ) ;
#77 = APPROVAL_PERSON_ORGANIZATION ( #54, #184, #42 ) ;
#78 = PERSON_AND_ORGANIZATION_ROLE ( 'design_supplier' ) ;
#79 = MANIFOLD_SOLID_BREP ( 'Corps-Déplacer/Copier1[2]', #157 ) ;
#80 = PERSON_AND_ORGANIZATION_ROLE ( 'creator' ) ;
#81 = ADVANCED_FACE ( 'NONE', ( #183 ), #49, .T. ) ;
#82 = SECURITY_CLASSIFICATION_LEVEL ( 'unclassified' ) ;
#83 = APPROVAL_DATE_TIME ( #156, #123 ) ;
#84 = DIRECTION ( 'NONE',  ( 0.0000000000000000000, 1.000000000000000000, 0.0000000000000000000 ) ) ;
#85 = CIRCLE ( 'NONE', #41, 1.499999999999994671 ) ;
#86 = DIRECTION ( 'NONE',  ( -4.275831445896958607E-31, -1.000000000000000000, -1.224646799147353207E-16 ) ) ;
#87 = FACE_OUTER_BOUND ( 'NONE', #44, .T. ) ;
#88 = CARTESIAN_POINT ( 'NONE',  ( 5.237222008264700033E-15, -2.168404344971014538E-16, 1.500000000000000000 ) ) ;
#89 = AXIS2_PLACEMENT_3D ( 'NONE', #153, #194, #205 ) ;
#90 = FACE_BOUND ( 'NONE', #145, .T. ) ;
#91 = APPLICATION_PROTOCOL_DEFINITION ( 'international standard', 'config_control_design', 1994, #226 ) ;
#92 = ADVANCED_FACE ( 'NONE', ( #199 ), #165, .F. ) ;
#93 = DESIGN_CONTEXT ( 'detailed design', #226, 'design' ) ;
#94 = EDGE_CURVE ( 'NONE', #208, #208, #192, .T. ) ;
#95 = COORDINATED_UNIVERSAL_TIME_OFFSET ( 1, 0, .AHEAD. ) ;
#96 = CYLINDRICAL_SURFACE ( 'NONE', #242, 1.499999999999994671 ) ;
#97 = APPROVAL_DATE_TIME ( #195, #184 ) ;
#98 = EDGE_LOOP ( 'NONE', ( #154 ) ) ;
#99 = AXIS2_PLACEMENT_3D ( 'NONE', #1, #144, #124 ) ;
#100 = CALENDAR_DATE ( 2021, 16, 11 ) ;
#101 = ADVANCED_FACE ( 'NONE', ( #239, #33 ), #129, .T. ) ;
#102 = AXIS2_PLACEMENT_3D ( 'NONE', #125, #104, #221 ) ;
#103 = COORDINATED_UNIVERSAL_TIME_OFFSET ( 1, 0, .AHEAD. ) ;
#104 = DIRECTION ( 'NONE',  ( 3.491481338843133355E-15, -1.219242935835426903E-16, 1.000000000000000000 ) ) ;
#105 = DIRECTION ( 'NONE',  ( 3.491481338843133355E-15, -1.219242935835426903E-16, 1.000000000000000000 ) ) ;
#106 = CIRCLE ( 'NONE', #134, 1.199999999999996847 ) ;
#107 = CIRCLE ( 'NONE', #56, 0.3000000000000000999 ) ;
#108 = DIRECTION ( 'NONE',  ( -3.491481338843133355E-15, 1.219242935835426903E-16, -1.000000000000000000 ) ) ;
#109 = EDGE_CURVE ( 'NONE', #212, #212, #107, .T. ) ;
#110 = CARTESIAN_POINT ( 'NONE',  ( 7.044545740489955625E-15, -2.459990988554962605E-16, 2.017638090205028156 ) ) ;
#111 = EDGE_LOOP ( 'NONE', ( #55 ) ) ;
#112 = APPROVAL_PERSON_ORGANIZATION ( #45, #198, #186 ) ;
#113 = FACE_OUTER_BOUND ( 'NONE', #138, .T. ) ;
#114 = CARTESIAN_POINT ( 'NONE',  ( 1.326762908760390423E-13, 1.199999999999992406, 38.00000000000000000 ) ) ;
#115 =( GEOMETRIC_REPRESENTATION_CONTEXT ( 3 ) GLOBAL_UNCERTAINTY_ASSIGNED_CONTEXT ( ( #39 ) ) GLOBAL_UNIT_ASSIGNED_CONTEXT ( ( #131, #233, #70 ) ) REPRESENTATION_CONTEXT ( 'NONE', 'WORKASPACE' ) );
#116 = APPLICATION_CONTEXT ( 'configuration controlled 3d designs of mechanical parts and assemblies' ) ;
#117 = COORDINATED_UNIVERSAL_TIME_OFFSET ( 1, 0, .AHEAD. ) ;
#118 = CARTESIAN_POINT ( 'NONE',  ( 0.0000000000000000000, 0.0000000000000000000, 0.0000000000000000000 ) ) ;
#119 = EDGE_LOOP ( 'NONE', ( #132 ) ) ;
#120 = APPROVAL_ROLE ( '' ) ;
#121 = CIRCLE ( 'NONE', #89, 0.3000000000000000999 ) ;
#122 = COORDINATED_UNIVERSAL_TIME_OFFSET ( 1, 0, .AHEAD. ) ;
#123 = APPROVAL ( #12, 'UNSPECIFIED' ) ;
#124 = DIRECTION ( 'NONE',  ( -4.275831445896958607E-31, -1.000000000000000000, -1.224646799147353207E-16 ) ) ;
#125 = CARTESIAN_POINT ( 'NONE',  ( -1.624246006335841728E-30, 5.671949173126751323E-32, -4.652025454828921128E-16 ) ) ;
#126 = DIRECTION ( 'NONE',  ( 3.491481338843133355E-15, -1.219242935835426903E-16, 1.000000000000000000 ) ) ;
#127 = CONICAL_SURFACE ( 'NONE', #174, 1.199999999999996847, 0.7853981633974453924 ) ;
#128 = DIRECTION ( 'NONE',  ( 4.275831445896958607E-31, 1.000000000000000000, 1.224646799147353207E-16 ) ) ;
#129 = CYLINDRICAL_SURFACE ( 'NONE', #215, 0.3000000000000000444 ) ;
#130 = ADVANCED_FACE ( 'NONE', ( #68 ), #37, .F. ) ;
#131 =( LENGTH_UNIT ( ) NAMED_UNIT ( * ) SI_UNIT ( .MILLI., .METRE. ) );
#132 = ORIENTED_EDGE ( 'NONE', *, *, #109, .F. ) ;
#133 = APPROVAL_STATUS ( 'not_yet_approved' ) ;
#134 = AXIS2_PLACEMENT_3D ( 'NONE', #162, #47, #146 ) ;
#135 = AXIS2_PLACEMENT_3D ( 'NONE', #118, #23, #74 ) ;
#136 = ORIENTED_EDGE ( 'NONE', *, *, #19, .T. ) ;
#137 = DIRECTION ( 'NONE',  ( -4.275831445896958607E-31, -1.000000000000000000, -1.224646799147353207E-16 ) ) ;
#138 = EDGE_LOOP ( 'NONE', ( #43 ) ) ;
#139 = DATE_AND_TIME ( #7, #10 ) ;
#140 = CONICAL_SURFACE ( 'NONE', #22, 2.499999999999995559, 0.2617993877991428575 ) ;
#141 = ADVANCED_FACE ( 'NONE', ( #203 ), #185, .F. ) ;
#142 = DATE_AND_TIME ( #100, #51 ) ;
#143 = ORIENTED_EDGE ( 'NONE', *, *, #109, .T. ) ;
#144 = DIRECTION ( 'NONE',  ( 3.491481338843133355E-15, -1.224646799147353207E-16, 1.000000000000000000 ) ) ;
#145 = EDGE_LOOP ( 'NONE', ( #58 ) ) ;
#146 = DIRECTION ( 'NONE',  ( 0.0000000000000000000, 1.000000000000000000, 0.0000000000000000000 ) ) ;
#147 = CC_DESIGN_APPROVAL ( #198, ( #5 ) ) ;
#148 = DIRECTION ( 'NONE',  ( -3.491481338843133355E-15, 1.224646799147353207E-16, -1.000000000000000000 ) ) ;
#149 = CARTESIAN_POINT ( 'NONE',  ( 0.0000000000000000000, 0.0000000000000000000, 0.0000000000000000000 ) ) ;
#150 = CC_DESIGN_SECURITY_CLASSIFICATION ( #5, ( #169 ) ) ;
#151 = CARTESIAN_POINT ( 'NONE',  ( 1.316288464743861212E-13, 1.499999999999992228, 37.69999999999999574 ) ) ;
#152 = CC_DESIGN_PERSON_AND_ORGANIZATION_ASSIGNMENT ( #28, #80, ( #169 ) ) ;
#153 = CARTESIAN_POINT ( 'NONE',  ( 5.237222008264697666E-15, -1.828864403753139615E-16, 1.499999999999999334 ) ) ;
#154 = ORIENTED_EDGE ( 'NONE', *, *, #177, .T. ) ;
#155 = ORIENTED_EDGE ( 'NONE', *, *, #217, .F. ) ;
#156 = DATE_AND_TIME ( #59, #3 ) ;
#157 = CLOSED_SHELL ( 'NONE', ( #81, #101, #141 ) ) ;
#158 = CC_DESIGN_DATE_AND_TIME_ASSIGNMENT ( #139, #214, ( #5 ) ) ;
#159 = TOROIDAL_SURFACE ( 'NONE', #191, 2.299999999999999822, 2.000000000000000000 ) ;
#160 = CLOSED_SHELL ( 'NONE', ( #237, #62, #130, #29, #71, #92 ) ) ;
#161 = LOCAL_TIME ( 16, 36, 5.000000000000000000, #95 ) ;
#162 = CARTESIAN_POINT ( 'NONE',  ( 1.326762908760390423E-13, -4.653657836759941941E-15, 38.00000000000000000 ) ) ;
#163 = PRODUCT_DEFINITION_SHAPE ( 'NONE', 'NONE',  #60 ) ;
#164 = CARTESIAN_POINT ( 'NONE',  ( 1.326762908760390423E-13, 8.998558695971053960E-33, 38.00000000000000000 ) ) ;
#165 = PLANE ( 'NONE',  #229 ) ;
#166 = CC_DESIGN_PERSON_AND_ORGANIZATION_ASSIGNMENT ( #178, #9, ( #60 ) ) ;
#167 = DIRECTION ( 'NONE',  ( 3.491481338843133355E-15, -1.224646799147353207E-16, 1.000000000000000000 ) ) ;
#168 = MANIFOLD_SOLID_BREP ( 'Corps-Déplacer/Copier1[1]', #160 ) ;
#169 = PRODUCT_DEFINITION_FORMATION_WITH_SPECIFIED_SOURCE ( 'ANY', '', #32, .NOT_KNOWN. ) ;
#170 = DATE_AND_TIME ( #232, #161 ) ;
#171 = ORIENTED_EDGE ( 'NONE', *, *, #177, .F. ) ;
#172 = VERTEX_POINT ( 'NONE', #225 ) ;
#173 = APPLICATION_PROTOCOL_DEFINITION ( 'international standard', 'config_control_design', 1994, #116 ) ;
#174 = AXIS2_PLACEMENT_3D ( 'NONE', #63, #148, #84 ) ;
#175 = PERSON_AND_ORGANIZATION_ROLE ( 'design_owner' ) ;
#176 = VERTEX_POINT ( 'NONE', #114 ) ;
#177 = EDGE_CURVE ( 'NONE', #69, #69, #121, .T. ) ;
#178 = PERSON_AND_ORGANIZATION ( #13, #30 ) ;
#179 = EDGE_LOOP ( 'NONE', ( #48 ) ) ;
#180 = CIRCLE ( 'NONE', #67, 1.499999999999996669 ) ;
#181 = DATE_TIME_ROLE ( 'creation_date' ) ;
#182 = CARTESIAN_POINT ( 'NONE',  ( 5.237222008264697666E-15, -1.828864403753139615E-16, 1.499999999999999334 ) ) ;
#183 = FACE_OUTER_BOUND ( 'NONE', #98, .T. ) ;
#184 = APPROVAL ( #133, 'UNSPECIFIED' ) ;
#185 = PLANE ( 'NONE',  #222 ) ;
#186 = APPROVAL_ROLE ( '' ) ;
#187 = DIRECTION ( 'NONE',  ( 0.0000000000000000000, -1.000000000000000000, 0.0000000000000000000 ) ) ;
#188 = AXIS2_PLACEMENT_3D ( 'NONE', #164, #64, #128 ) ;
#189 = APPROVAL_STATUS ( 'not_yet_approved' ) ;
#190 = CARTESIAN_POINT ( 'NONE',  ( 1.316288464743861212E-13, -4.616918432785521081E-15, 37.69999999999999574 ) ) ;
#191 = AXIS2_PLACEMENT_3D ( 'NONE', #65, #46, #224 ) ;
#192 = CIRCLE ( 'NONE', #102, 0.2999999999999999334 ) ;
#193 = APPROVAL_DATE_TIME ( #170, #198 ) ;
#194 = DIRECTION ( 'NONE',  ( 3.491481338843133355E-15, -1.219242935835426903E-16, 1.000000000000000000 ) ) ;
#195 = DATE_AND_TIME ( #234, #235 ) ;
#196 = ORIENTED_EDGE ( 'NONE', *, *, #19, .F. ) ;
#197 = PERSON_AND_ORGANIZATION ( #13, #30 ) ;
#198 = APPROVAL ( #189, 'UNSPECIFIED' ) ;
#199 = FACE_OUTER_BOUND ( 'NONE', #119, .T. ) ;
#200 = FACE_BOUND ( 'NONE', #213, .T. ) ;
#201 = CARTESIAN_POINT ( 'NONE',  ( 2.179300938563139284E-14, -7.610229059058999165E-16, 6.241765964257533383 ) ) ;
#202 = CC_DESIGN_DATE_AND_TIME_ASSIGNMENT ( #142, #181, ( #60 ) ) ;
#203 = FACE_OUTER_BOUND ( 'NONE', #6, .T. ) ;
#204 = DIRECTION ( 'NONE',  ( 3.491481338843133355E-15, -1.219242935835426903E-16, 1.000000000000000000 ) ) ;
#205 = DIRECTION ( 'NONE',  ( 0.0000000000000000000, -1.000000000000000000, 0.0000000000000000000 ) ) ;
#206 = EDGE_LOOP ( 'NONE', ( #24 ) ) ;
#207 = DIRECTION ( 'NONE',  ( 4.275831445896958607E-31, 1.000000000000000000, 1.224646799147352961E-16 ) ) ;
#208 = VERTEX_POINT ( 'NONE', #38 ) ;
#209 = CC_DESIGN_PERSON_AND_ORGANIZATION_ASSIGNMENT ( #73, #175, ( #32 ) ) ;
#210 = CC_DESIGN_APPROVAL ( #184, ( #60 ) ) ;
#211 = EDGE_LOOP ( 'NONE', ( #236 ) ) ;
#212 = VERTEX_POINT ( 'NONE', #40 ) ;
#213 = EDGE_LOOP ( 'NONE', ( #136 ) ) ;
#214 = DATE_TIME_ROLE ( 'classification_date' ) ;
#215 = AXIS2_PLACEMENT_3D ( 'NONE', #241, #204, #223 ) ;
#216 = COORDINATED_UNIVERSAL_TIME_OFFSET ( 1, 0, .AHEAD. ) ;
#217 = EDGE_CURVE ( 'NONE', #50, #50, #180, .T. ) ;
#218 = APPROVAL_PERSON_ORGANIZATION ( #31, #123, #120 ) ;
#219 = FACE_OUTER_BOUND ( 'NONE', #111, .T. ) ;
#220 = FACE_OUTER_BOUND ( 'NONE', #26, .T. ) ;
#221 = DIRECTION ( 'NONE',  ( -4.256963957985706261E-31, -1.000000000000000000, -1.219242935835426903E-16 ) ) ;
#222 = AXIS2_PLACEMENT_3D ( 'NONE', #18, #243, #137 ) ;
#223 = DIRECTION ( 'NONE',  ( -4.256963957985708889E-31, -1.000000000000000000, -1.219242935835426656E-16 ) ) ;
#224 = DIRECTION ( 'NONE',  ( -4.318720456597940409E-31, -1.000000000000000000, -1.219242935835426903E-16 ) ) ;
#225 = CARTESIAN_POINT ( 'NONE',  ( 2.179300938563139284E-14, -1.499999999999995559, 6.241765964257533383 ) ) ;
#226 = APPLICATION_CONTEXT ( 'configuration controlled 3d designs of mechanical parts and assemblies' ) ;
#227 = PRODUCT_RELATED_PRODUCT_CATEGORY ( 'detail', '', ( #32 ) ) ;
#228 = FACE_OUTER_BOUND ( 'NONE', #211, .T. ) ;
#229 = AXIS2_PLACEMENT_3D ( 'NONE', #88, #167, #86 ) ;
#230 = ORIENTED_EDGE ( 'NONE', *, *, #94, .F. ) ;
#231 = VERTEX_POINT ( 'NONE', #2 ) ;
#232 = CALENDAR_DATE ( 2021, 16, 11 ) ;
#233 =( NAMED_UNIT ( * ) PLANE_ANGLE_UNIT ( ) SI_UNIT ( $, .RADIAN. ) );
#234 = CALENDAR_DATE ( 2021, 16, 11 ) ;
#235 = LOCAL_TIME ( 16, 36, 5.000000000000000000, #117 ) ;
#236 = ORIENTED_EDGE ( 'NONE', *, *, #8, .F. ) ;
#237 = ADVANCED_FACE ( 'NONE', ( #113, #228 ), #96, .T. ) ;
#238 = ADVANCED_BREP_SHAPE_REPRESENTATION ( '966062', ( #168, #79, #135 ), #115 ) ;
#239 = FACE_OUTER_BOUND ( 'NONE', #179, .T. ) ;
#240 = DIRECTION ( 'NONE',  ( 0.0000000000000000000, -1.000000000000000000, 0.0000000000000000000 ) ) ;
#241 = CARTESIAN_POINT ( 'NONE',  ( 0.0000000000000000000, 0.0000000000000000000, 0.0000000000000000000 ) ) ;
#242 = AXIS2_PLACEMENT_3D ( 'NONE', #149, #52, #207 ) ;
#243 = DIRECTION ( 'NONE',  ( 3.491481338843133355E-15, -1.224646799147353207E-16, 1.000000000000000000 ) ) ;
ENDSEC;
END-ISO-10303-21;
