ISO-10303-21;
HEADER;
FILE_DESCRIPTION (( 'STEP AP203' ),
    '1' );
FILE_NAME ('966061.step',
    '2021-11-16T15:36:05',
    ( '' ),
    ( '' ),
    'SwSTEP 2.0',
    'SolidWorks 2019',
    '' );
FILE_SCHEMA (( 'CONFIG_CONTROL_DESIGN' ));
ENDSEC;

DATA;
#1 = DIRECTION ( 'NONE',  ( -4.275831445896958607E-31, -1.000000000000000000, -1.224646799147353207E-16 ) ) ;
#2 = APPROVAL ( #173, 'UNSPECIFIED' ) ;
#3 =( NAMED_UNIT ( * ) SI_UNIT ( $, .STERADIAN. ) SOLID_ANGLE_UNIT ( ) );
#4 = CARTESIAN_POINT ( 'NONE',  ( 1.326762908760390423E-13, 8.998558695971053960E-33, 38.00000000000000000 ) ) ;
#5 = AXIS2_PLACEMENT_3D ( 'NONE', #237, #85, #105 ) ;
#6 = APPROVAL_DATE_TIME ( #153, #2 ) ;
#7 = CC_DESIGN_DATE_AND_TIME_ASSIGNMENT ( #62, #116, ( #126 ) ) ;
#8 = CALENDAR_DATE ( 2021, 16, 11 ) ;
#9 = CARTESIAN_POINT ( 'NONE',  ( 0.0000000000000000000, 0.0000000000000000000, 0.0000000000000000000 ) ) ;
#10 = CLOSED_SHELL ( 'NONE', ( #195, #33, #104, #218, #86, #185 ) ) ;
#11 = FACE_OUTER_BOUND ( 'NONE', #42, .T. ) ;
#12 = ORIENTED_EDGE ( 'NONE', *, *, #122, .T. ) ;
#13 = CC_DESIGN_APPROVAL ( #235, ( #126 ) ) ;
#14 = EDGE_LOOP ( 'NONE', ( #100 ) ) ;
#15 = EDGE_CURVE ( 'NONE', #18, #18, #64, .T. ) ;
#16 = CONICAL_SURFACE ( 'NONE', #133, 1.199999999999996847, 0.7853981633974453924 ) ;
#17 = DIRECTION ( 'NONE',  ( -3.491481338843133355E-15, 1.224646799147353207E-16, -1.000000000000000000 ) ) ;
#18 = VERTEX_POINT ( 'NONE', #147 ) ;
#19 = CARTESIAN_POINT ( 'NONE',  ( 1.316288464743861212E-13, -4.616918432785521081E-15, 37.69999999999999574 ) ) ;
#20 = PERSON_AND_ORGANIZATION ( #61, #58 ) ;
#21 = DIRECTION ( 'NONE',  ( -4.319081605712631913E-31, -1.000000000000000000, -1.219242935835426903E-16 ) ) ;
#22 = AXIS2_PLACEMENT_3D ( 'NONE', #19, #128, #92 ) ;
#23 = PERSON_AND_ORGANIZATION_ROLE ( 'creator' ) ;
#24 = APPROVAL_DATE_TIME ( #192, #235 ) ;
#25 = PERSON_AND_ORGANIZATION_ROLE ( 'classification_officer' ) ;
#26 = CYLINDRICAL_SURFACE ( 'NONE', #27, 0.2750000000000001887 ) ;
#27 = AXIS2_PLACEMENT_3D ( 'NONE', #9, #155, #135 ) ;
#28 = SHAPE_DEFINITION_REPRESENTATION ( #138, #145 ) ;
#29 = APPROVAL_PERSON_ORGANIZATION ( #131, #235, #136 ) ;
#30 = ORIENTED_EDGE ( 'NONE', *, *, #183, .F. ) ;
#31 = CARTESIAN_POINT ( 'NONE',  ( 1.326762908760390423E-13, -4.653657836759941941E-15, 38.00000000000000000 ) ) ;
#32 = AXIS2_PLACEMENT_3D ( 'NONE', #77, #156, #170 ) ;
#33 = ADVANCED_FACE ( 'NONE', ( #49, #182 ), #16, .T. ) ;
#34 = CYLINDRICAL_SURFACE ( 'NONE', #234, 1.499999999999994671 ) ;
#35 = LOCAL_TIME ( 16, 36, 5.000000000000000000, #112 ) ;
#36 = CARTESIAN_POINT ( 'NONE',  ( 4.888073874380385909E-15, -2.023844055306280203E-16, 1.399999999999999689 ) ) ;
#37 = MECHANICAL_CONTEXT ( 'NONE', #115, 'mechanical' ) ;
#38 = CARTESIAN_POINT ( 'NONE',  ( 1.326762908760390423E-13, -4.653657836759941941E-15, 38.00000000000000000 ) ) ;
#39 = CALENDAR_DATE ( 2021, 16, 11 ) ;
#40 = PERSON_AND_ORGANIZATION_ROLE ( 'creator' ) ;
#41 = CALENDAR_DATE ( 2021, 16, 11 ) ;
#42 = EDGE_LOOP ( 'NONE', ( #199 ) ) ;
#43 = ORIENTED_EDGE ( 'NONE', *, *, #167, .T. ) ;
#44 = CC_DESIGN_PERSON_AND_ORGANIZATION_ASSIGNMENT ( #79, #151, ( #193 ) ) ;
#45 = EDGE_LOOP ( 'NONE', ( #236 ) ) ;
#46 = CC_DESIGN_APPROVAL ( #220, ( #47 ) ) ;
#47 = PRODUCT_DEFINITION ( 'UNKNOWN', '', #193, #97 ) ;
#48 = ORIENTED_EDGE ( 'NONE', *, *, #89, .F. ) ;
#49 = FACE_OUTER_BOUND ( 'NONE', #140, .T. ) ;
#50 = AXIS2_PLACEMENT_3D ( 'NONE', #38, #187, #212 ) ;
#51 = CARTESIAN_POINT ( 'NONE',  ( 2.176962089550311139E-14, -7.602061680058137481E-16, 6.235067234446756146 ) ) ;
#52 = DIRECTION ( 'NONE',  ( 3.491481338843133355E-15, -1.219242935835426903E-16, 1.000000000000000000 ) ) ;
#53 = CARTESIAN_POINT ( 'NONE',  ( 4.888073874380385909E-15, -2.023844055306280203E-16, 1.399999999999999689 ) ) ;
#54 = PERSON_AND_ORGANIZATION_ROLE ( 'design_owner' ) ;
#55 = DIRECTION ( 'NONE',  ( 0.0000000000000000000, -1.000000000000000000, 0.0000000000000000000 ) ) ;
#56 = DATE_TIME_ROLE ( 'creation_date' ) ;
#57 = CARTESIAN_POINT ( 'NONE',  ( 4.888073874380383542E-15, -1.706940110169596530E-16, 1.399999999999999023 ) ) ;
#58 = ORGANIZATION ( 'UNSPECIFIED', 'UNSPECIFIED', '' ) ;
#59 = APPROVAL_STATUS ( 'not_yet_approved' ) ;
#60 = CC_DESIGN_PERSON_AND_ORGANIZATION_ASSIGNMENT ( #216, #40, ( #193 ) ) ;
#61 = PERSON ( 'UNSPECIFIED', 'UNSPECIFIED', 'UNSPECIFIED', ('UNSPECIFIED'), ('UNSPECIFIED'), ('UNSPECIFIED') ) ;
#62 = DATE_AND_TIME ( #215, #148 ) ;
#63 = EDGE_LOOP ( 'NONE', ( #121 ) ) ;
#64 = CIRCLE ( 'NONE', #177, 0.2750000000000002442 ) ;
#65 = EDGE_LOOP ( 'NONE', ( #12 ) ) ;
#66 = EDGE_LOOP ( 'NONE', ( #119 ) ) ;
#67 = APPROVAL_PERSON_ORGANIZATION ( #20, #2, #149 ) ;
#68 = DIRECTION ( 'NONE',  ( 0.0000000000000000000, 0.0000000000000000000, 1.000000000000000000 ) ) ;
#69 = AXIS2_PLACEMENT_3D ( 'NONE', #53, #210, #1 ) ;
#70 = DIRECTION ( 'NONE',  ( 4.275831445896958607E-31, 1.000000000000000000, 1.224646799147352961E-16 ) ) ;
#71 = CARTESIAN_POINT ( 'NONE',  ( -1.730670105285484559E-30, -0.2750000000000000777, -4.956836188787778346E-16 ) ) ;
#72 = DIRECTION ( 'NONE',  ( -3.491481338843133355E-15, 1.219242935835426903E-16, -1.000000000000000000 ) ) ;
#73 = AXIS2_PLACEMENT_3D ( 'NONE', #36, #129, #241 ) ;
#74 = DIRECTION ( 'NONE',  ( 4.275831445896958607E-31, 1.000000000000000000, 1.224646799147353207E-16 ) ) ;
#75 = DIRECTION ( 'NONE',  ( 3.491481338843133355E-15, -1.219242935835426903E-16, 1.000000000000000000 ) ) ;
#76 = PERSON_AND_ORGANIZATION ( #61, #58 ) ;
#77 = CARTESIAN_POINT ( 'NONE',  ( 3.480000664574464234E-14, -1.215233826336551382E-15, 9.967118042015734147 ) ) ;
#78 = AXIS2_PLACEMENT_3D ( 'NONE', #57, #75, #175 ) ;
#79 = PERSON_AND_ORGANIZATION ( #61, #58 ) ;
#80 = ADVANCED_FACE ( 'NONE', ( #102, #113 ), #26, .T. ) ;
#81 = DIRECTION ( 'NONE',  ( -4.256963957985714144E-31, -1.000000000000000000, -1.219242935835427642E-16 ) ) ;
#82 = PLANE ( 'NONE',  #5 ) ;
#83 = ORIENTED_EDGE ( 'NONE', *, *, #167, .F. ) ;
#84 = CONICAL_SURFACE ( 'NONE', #32, 2.499999999999995559, 0.2617993877991429685 ) ;
#85 = DIRECTION ( 'NONE',  ( 3.491481338843133355E-15, -1.224646799147353207E-16, 1.000000000000000000 ) ) ;
#86 = ADVANCED_FACE ( 'NONE', ( #11, #194 ), #169, .F. ) ;
#87 = VERTEX_POINT ( 'NONE', #227 ) ;
#88 = AXIS2_PLACEMENT_3D ( 'NONE', #228, #130, #21 ) ;
#89 = EDGE_CURVE ( 'NONE', #87, #87, #162, .T. ) ;
#90 = DIRECTION ( 'NONE',  ( 0.0000000000000000000, -1.000000000000000000, 0.0000000000000000000 ) ) ;
#91 =( LENGTH_UNIT ( ) NAMED_UNIT ( * ) SI_UNIT ( .MILLI., .METRE. ) );
#92 = DIRECTION ( 'NONE',  ( 0.0000000000000000000, 1.000000000000000000, 0.0000000000000000000 ) ) ;
#93 = CIRCLE ( 'NONE', #22, 1.499999999999996669 ) ;
#94 = FACE_BOUND ( 'NONE', #161, .T. ) ;
#95 = CC_DESIGN_SECURITY_CLASSIFICATION ( #126, ( #193 ) ) ;
#96 = APPROVAL_DATE_TIME ( #229, #220 ) ;
#97 = DESIGN_CONTEXT ( 'detailed design', #204, 'design' ) ;
#98 = MANIFOLD_SOLID_BREP ( 'Corps-Déplacer/Copier1[2]', #125 ) ;
#99 = EDGE_LOOP ( 'NONE', ( #181 ) ) ;
#100 = ORIENTED_EDGE ( 'NONE', *, *, #189, .T. ) ;
#101 = MANIFOLD_SOLID_BREP ( 'Corps-Déplacer/Copier1[1]', #10 ) ;
#102 = FACE_OUTER_BOUND ( 'NONE', #99, .T. ) ;
#103 = CIRCLE ( 'NONE', #50, 1.199999999999996847 ) ;
#104 = ADVANCED_FACE ( 'NONE', ( #179 ), #144, .F. ) ;
#105 = DIRECTION ( 'NONE',  ( -4.275831445896958607E-31, -1.000000000000000000, -1.224646799147353207E-16 ) ) ;
#106 = CIRCLE ( 'NONE', #214, 0.3431483474218602892 ) ;
#107 = VERTEX_POINT ( 'NONE', #165 ) ;
#108 = PERSON_AND_ORGANIZATION ( #61, #58 ) ;
#109 = FACE_OUTER_BOUND ( 'NONE', #233, .T. ) ;
#110 = CC_DESIGN_PERSON_AND_ORGANIZATION_ASSIGNMENT ( #134, #23, ( #47 ) ) ;
#111 =( GEOMETRIC_REPRESENTATION_CONTEXT ( 3 ) GLOBAL_UNCERTAINTY_ASSIGNED_CONTEXT ( ( #198 ) ) GLOBAL_UNIT_ASSIGNED_CONTEXT ( ( #91, #166, #3 ) ) REPRESENTATION_CONTEXT ( 'NONE', 'WORKASPACE' ) );
#112 = COORDINATED_UNIVERSAL_TIME_OFFSET ( 1, 0, .AHEAD. ) ;
#113 = FACE_OUTER_BOUND ( 'NONE', #66, .T. ) ;
#114 = APPROVAL_STATUS ( 'not_yet_approved' ) ;
#115 = APPLICATION_CONTEXT ( 'configuration controlled 3d designs of mechanical parts and assemblies' ) ;
#116 = DATE_TIME_ROLE ( 'classification_date' ) ;
#117 = AXIS2_PLACEMENT_3D ( 'NONE', #239, #68, #206 ) ;
#118 = EDGE_LOOP ( 'NONE', ( #120 ) ) ;
#119 = ORIENTED_EDGE ( 'NONE', *, *, #15, .F. ) ;
#120 = ORIENTED_EDGE ( 'NONE', *, *, #122, .F. ) ;
#121 = ORIENTED_EDGE ( 'NONE', *, *, #189, .F. ) ;
#122 = EDGE_CURVE ( 'NONE', #211, #211, #203, .T. ) ;
#123 = DIRECTION ( 'NONE',  ( -3.491481338843133355E-15, 1.224646799147353207E-16, -1.000000000000000000 ) ) ;
#124 = CARTESIAN_POINT ( 'NONE',  ( 1.326762908760390423E-13, 1.199999999999992406, 38.00000000000000000 ) ) ;
#125 = CLOSED_SHELL ( 'NONE', ( #152, #80, #243 ) ) ;
#126 = SECURITY_CLASSIFICATION ( '', '', #190 ) ;
#127 = FACE_OUTER_BOUND ( 'NONE', #45, .T. ) ;
#128 = DIRECTION ( 'NONE',  ( -3.491481338843133355E-15, 1.224646799147353207E-16, -1.000000000000000000 ) ) ;
#129 = DIRECTION ( 'NONE',  ( 3.491481338843133355E-15, -1.224646799147353207E-16, 1.000000000000000000 ) ) ;
#130 = DIRECTION ( 'NONE',  ( 3.491481338843133355E-15, -1.219242935835426903E-16, 1.000000000000000000 ) ) ;
#131 = PERSON_AND_ORGANIZATION ( #61, #58 ) ;
#132 = COORDINATED_UNIVERSAL_TIME_OFFSET ( 1, 0, .AHEAD. ) ;
#133 = AXIS2_PLACEMENT_3D ( 'NONE', #31, #123, #202 ) ;
#134 = PERSON_AND_ORGANIZATION ( #61, #58 ) ;
#135 = DIRECTION ( 'NONE',  ( -4.256963957985709765E-31, -1.000000000000000000, -1.219242935835426903E-16 ) ) ;
#136 = APPROVAL_ROLE ( '' ) ;
#137 = FACE_OUTER_BOUND ( 'NONE', #65, .T. ) ;
#138 = PRODUCT_DEFINITION_SHAPE ( 'NONE', 'NONE',  #47 ) ;
#139 = LOCAL_TIME ( 16, 36, 5.000000000000000000, #132 ) ;
#140 = EDGE_LOOP ( 'NONE', ( #30 ) ) ;
#141 = DIRECTION ( 'NONE',  ( 3.491481338843133355E-15, -1.219242935835426903E-16, 1.000000000000000000 ) ) ;
#142 = CC_DESIGN_DATE_AND_TIME_ASSIGNMENT ( #213, #56, ( #47 ) ) ;
#143 = CARTESIAN_POINT ( 'NONE',  ( 2.176962089550311139E-14, -1.499999999999995559, 6.235067234446756146 ) ) ;
#144 = PLANE ( 'NONE',  #174 ) ;
#145 = ADVANCED_BREP_SHAPE_REPRESENTATION ( '966061', ( #101, #98, #117 ), #111 ) ;
#146 = PLANE ( 'NONE',  #73 ) ;
#147 = CARTESIAN_POINT ( 'NONE',  ( 4.888073874380383542E-15, -0.2750000000000004108, 1.399999999999999023 ) ) ;
#148 = LOCAL_TIME ( 16, 36, 5.000000000000000000, #168 ) ;
#149 = APPROVAL_ROLE ( '' ) ;
#150 = PLANE ( 'NONE',  #69 ) ;
#151 = PERSON_AND_ORGANIZATION_ROLE ( 'design_supplier' ) ;
#152 = ADVANCED_FACE ( 'NONE', ( #171 ), #150, .T. ) ;
#153 = DATE_AND_TIME ( #39, #226 ) ;
#154 = AXIS2_PLACEMENT_3D ( 'NONE', #51, #72, #55 ) ;
#155 = DIRECTION ( 'NONE',  ( 3.491481338843133355E-15, -1.219242935835426903E-16, 1.000000000000000000 ) ) ;
#156 = DIRECTION ( 'NONE',  ( 3.491481338843133355E-15, -1.219242935835426903E-16, 1.000000000000000000 ) ) ;
#157 = CALENDAR_DATE ( 2021, 16, 11 ) ;
#158 = AXIS2_PLACEMENT_3D ( 'NONE', #176, #180, #81 ) ;
#159 = FACE_OUTER_BOUND ( 'NONE', #196, .T. ) ;
#160 = CC_DESIGN_PERSON_AND_ORGANIZATION_ASSIGNMENT ( #108, #25, ( #126 ) ) ;
#161 = EDGE_LOOP ( 'NONE', ( #43 ) ) ;
#162 = CIRCLE ( 'NONE', #78, 0.2750000000000002442 ) ;
#163 = VERTEX_POINT ( 'NONE', #71 ) ;
#164 = DIRECTION ( 'NONE',  ( -3.491481338843133355E-15, 1.224646799147353207E-16, -1.000000000000000000 ) ) ;
#165 = CARTESIAN_POINT ( 'NONE',  ( 1.316288464743861212E-13, 1.499999999999992228, 37.69999999999999574 ) ) ;
#166 =( NAMED_UNIT ( * ) PLANE_ANGLE_UNIT ( ) SI_UNIT ( $, .RADIAN. ) );
#167 = EDGE_CURVE ( 'NONE', #240, #240, #106, .T. ) ;
#168 = COORDINATED_UNIVERSAL_TIME_OFFSET ( 1, 0, .AHEAD. ) ;
#169 = TOROIDAL_SURFACE ( 'NONE', #88, 2.274999999999999911, 2.000000000000000000 ) ;
#170 = DIRECTION ( 'NONE',  ( 0.0000000000000000000, -1.000000000000000000, 0.0000000000000000000 ) ) ;
#171 = FACE_OUTER_BOUND ( 'NONE', #197, .T. ) ;
#172 = APPROVAL_ROLE ( '' ) ;
#173 = APPROVAL_STATUS ( 'not_yet_approved' ) ;
#174 = AXIS2_PLACEMENT_3D ( 'NONE', #4, #164, #74 ) ;
#175 = DIRECTION ( 'NONE',  ( 0.0000000000000000000, -1.000000000000000000, 0.0000000000000000000 ) ) ;
#176 = CARTESIAN_POINT ( 'NONE',  ( -1.613603596440877339E-30, 5.634785339712136831E-32, -4.621544381433035603E-16 ) ) ;
#177 = AXIS2_PLACEMENT_3D ( 'NONE', #238, #141, #222 ) ;
#178 = ORIENTED_EDGE ( 'NONE', *, *, #223, .F. ) ;
#179 = FACE_OUTER_BOUND ( 'NONE', #63, .T. ) ;
#180 = DIRECTION ( 'NONE',  ( 3.491481338843133355E-15, -1.219242935835426903E-16, 1.000000000000000000 ) ) ;
#181 = ORIENTED_EDGE ( 'NONE', *, *, #223, .T. ) ;
#182 = FACE_BOUND ( 'NONE', #14, .T. ) ;
#183 = EDGE_CURVE ( 'NONE', #107, #107, #93, .T. ) ;
#184 = CARTESIAN_POINT ( 'NONE',  ( 0.0000000000000000000, 0.0000000000000000000, 0.0000000000000000000 ) ) ;
#185 = ADVANCED_FACE ( 'NONE', ( #109 ), #146, .F. ) ;
#186 = VERTEX_POINT ( 'NONE', #124 ) ;
#187 = DIRECTION ( 'NONE',  ( -3.491481338843133355E-15, 1.224646799147353207E-16, -1.000000000000000000 ) ) ;
#188 = CC_DESIGN_APPROVAL ( #2, ( #193 ) ) ;
#189 = EDGE_CURVE ( 'NONE', #186, #186, #103, .T. ) ;
#190 = SECURITY_CLASSIFICATION_LEVEL ( 'unclassified' ) ;
#191 = APPLICATION_PROTOCOL_DEFINITION ( 'international standard', 'config_control_design', 1994, #204 ) ;
#192 = DATE_AND_TIME ( #41, #242 ) ;
#193 = PRODUCT_DEFINITION_FORMATION_WITH_SPECIFIED_SOURCE ( 'ANY', '', #232, .NOT_KNOWN. ) ;
#194 = FACE_OUTER_BOUND ( 'NONE', #219, .T. ) ;
#195 = ADVANCED_FACE ( 'NONE', ( #127, #207 ), #34, .T. ) ;
#196 = EDGE_LOOP ( 'NONE', ( #178 ) ) ;
#197 = EDGE_LOOP ( 'NONE', ( #201 ) ) ;
#198 = UNCERTAINTY_MEASURE_WITH_UNIT (LENGTH_MEASURE( 1.000000000000000082E-05 ), #91, 'distance_accuracy_value', 'NONE');
#199 = ORIENTED_EDGE ( 'NONE', *, *, #89, .T. ) ;
#200 = APPROVAL_PERSON_ORGANIZATION ( #230, #220, #172 ) ;
#201 = ORIENTED_EDGE ( 'NONE', *, *, #15, .T. ) ;
#202 = DIRECTION ( 'NONE',  ( 0.0000000000000000000, 1.000000000000000000, 0.0000000000000000000 ) ) ;
#203 = CIRCLE ( 'NONE', #154, 1.499999999999994671 ) ;
#204 = APPLICATION_CONTEXT ( 'configuration controlled 3d designs of mechanical parts and assemblies' ) ;
#205 = CC_DESIGN_PERSON_AND_ORGANIZATION_ASSIGNMENT ( #76, #54, ( #232 ) ) ;
#206 = DIRECTION ( 'NONE',  ( 1.000000000000000000, 0.0000000000000000000, 0.0000000000000000000 ) ) ;
#207 = FACE_OUTER_BOUND ( 'NONE', #118, .T. ) ;
#208 = APPLICATION_PROTOCOL_DEFINITION ( 'international standard', 'config_control_design', 1994, #115 ) ;
#209 = PRODUCT_RELATED_PRODUCT_CATEGORY ( 'detail', '', ( #232 ) ) ;
#210 = DIRECTION ( 'NONE',  ( 3.491481338843133355E-15, -1.224646799147353207E-16, 1.000000000000000000 ) ) ;
#211 = VERTEX_POINT ( 'NONE', #143 ) ;
#212 = DIRECTION ( 'NONE',  ( 0.0000000000000000000, 1.000000000000000000, 0.0000000000000000000 ) ) ;
#213 = DATE_AND_TIME ( #8, #139 ) ;
#214 = AXIS2_PLACEMENT_3D ( 'NONE', #225, #52, #90 ) ;
#215 = CALENDAR_DATE ( 2021, 16, 11 ) ;
#216 = PERSON_AND_ORGANIZATION ( #61, #58 ) ;
#217 = COORDINATED_UNIVERSAL_TIME_OFFSET ( 1, 0, .AHEAD. ) ;
#218 = ADVANCED_FACE ( 'NONE', ( #94, #137 ), #84, .T. ) ;
#219 = EDGE_LOOP ( 'NONE', ( #83 ) ) ;
#220 = APPROVAL ( #59, 'UNSPECIFIED' ) ;
#221 = CIRCLE ( 'NONE', #158, 0.2750000000000000777 ) ;
#222 = DIRECTION ( 'NONE',  ( 0.0000000000000000000, -1.000000000000000000, 0.0000000000000000000 ) ) ;
#223 = EDGE_CURVE ( 'NONE', #163, #163, #221, .T. ) ;
#224 = CARTESIAN_POINT ( 'NONE',  ( 6.695397606605640712E-15, -0.3431483474218605112, 1.917638090205028067 ) ) ;
#225 = CARTESIAN_POINT ( 'NONE',  ( 6.695397606605640712E-15, -2.338066694971420013E-16, 1.917638090205028067 ) ) ;
#226 = LOCAL_TIME ( 16, 36, 5.000000000000000000, #231 ) ;
#227 = CARTESIAN_POINT ( 'NONE',  ( 4.888073874380383542E-15, -0.2750000000000004108, 1.399999999999999023 ) ) ;
#228 = CARTESIAN_POINT ( 'NONE',  ( 4.888073874380383542E-15, 0.0000000000000000000, 1.399999999999999023 ) ) ;
#229 = DATE_AND_TIME ( #157, #35 ) ;
#230 = PERSON_AND_ORGANIZATION ( #61, #58 ) ;
#231 = COORDINATED_UNIVERSAL_TIME_OFFSET ( 1, 0, .AHEAD. ) ;
#232 = PRODUCT ( '966061', '966061', '', ( #37 ) ) ;
#233 = EDGE_LOOP ( 'NONE', ( #48 ) ) ;
#234 = AXIS2_PLACEMENT_3D ( 'NONE', #184, #17, #70 ) ;
#235 = APPROVAL ( #114, 'UNSPECIFIED' ) ;
#236 = ORIENTED_EDGE ( 'NONE', *, *, #183, .T. ) ;
#237 = CARTESIAN_POINT ( 'NONE',  ( -4.275811853558651348E-31, 1.499752910594655314E-32, -1.224641187678636516E-16 ) ) ;
#238 = CARTESIAN_POINT ( 'NONE',  ( 4.888073874380383542E-15, -1.706940110169596530E-16, 1.399999999999999023 ) ) ;
#239 = CARTESIAN_POINT ( 'NONE',  ( 0.0000000000000000000, 0.0000000000000000000, 0.0000000000000000000 ) ) ;
#240 = VERTEX_POINT ( 'NONE', #224 ) ;
#241 = DIRECTION ( 'NONE',  ( -4.275831445896958607E-31, -1.000000000000000000, -1.224646799147353207E-16 ) ) ;
#242 = LOCAL_TIME ( 16, 36, 5.000000000000000000, #217 ) ;
#243 = ADVANCED_FACE ( 'NONE', ( #159 ), #82, .F. ) ;
ENDSEC;
END-ISO-10303-21;
