ISO-10303-21;
HEADER;
FILE_DESCRIPTION (( 'STEP AP203' ),
    '1' );
FILE_NAME ('966060.step',
    '2021-11-16T15:36:04',
    ( '' ),
    ( '' ),
    'SwSTEP 2.0',
    'SolidWorks 2019',
    '' );
FILE_SCHEMA (( 'CONFIG_CONTROL_DESIGN' ));
ENDSEC;

DATA;
#1 = COORDINATED_UNIVERSAL_TIME_OFFSET ( 1, 0, .AHEAD. ) ;
#2 = PERSON_AND_ORGANIZATION ( #91, #78 ) ;
#3 = AXIS2_PLACEMENT_3D ( 'NONE', #35, #188, #95 ) ;
#4 = CALENDAR_DATE ( 2021, 16, 11 ) ;
#5 = APPLICATION_PROTOCOL_DEFINITION ( 'international standard', 'config_control_design', 1994, #198 ) ;
#6 = CC_DESIGN_APPROVAL ( #56, ( #148 ) ) ;
#7 = CC_DESIGN_PERSON_AND_ORGANIZATION_ASSIGNMENT ( #176, #36, ( #169 ) ) ;
#8 = CLOSED_SHELL ( 'NONE', ( #173, #52, #146 ) ) ;
#9 = LOCAL_TIME ( 16, 36, 4.000000000000000000, #232 ) ;
#10 = EDGE_LOOP ( 'NONE', ( #83 ) ) ;
#11 = ORIENTED_EDGE ( 'NONE', *, *, #140, .F. ) ;
#12 = FACE_OUTER_BOUND ( 'NONE', #27, .T. ) ;
#13 = FACE_OUTER_BOUND ( 'NONE', #221, .T. ) ;
#14 = CARTESIAN_POINT ( 'NONE',  ( 2.157165833843267958E-14, -1.499999999999995337, 6.178368504635980862 ) ) ;
#15 = AXIS2_PLACEMENT_3D ( 'NONE', #73, #167, #203 ) ;
#16 = DIRECTION ( 'NONE',  ( -4.275831445896958607E-31, -1.000000000000000000, -1.224646799147353207E-16 ) ) ;
#17 = PERSON_AND_ORGANIZATION ( #91, #78 ) ;
#18 = ADVANCED_FACE ( 'NONE', ( #25, #84 ), #59, .T. ) ;
#19 = APPROVAL_STATUS ( 'not_yet_approved' ) ;
#20 = CALENDAR_DATE ( 2021, 16, 11 ) ;
#21 = AXIS2_PLACEMENT_3D ( 'NONE', #197, #62, #237 ) ;
#22 = APPROVAL_DATE_TIME ( #195, #233 ) ;
#23 = AXIS2_PLACEMENT_3D ( 'NONE', #51, #71, #225 ) ;
#24 = EDGE_CURVE ( 'NONE', #109, #109, #85, .T. ) ;
#25 = FACE_BOUND ( 'NONE', #86, .T. ) ;
#26 = AXIS2_PLACEMENT_3D ( 'NONE', #90, #74, #223 ) ;
#27 = EDGE_LOOP ( 'NONE', ( #66 ) ) ;
#28 = PLANE ( 'NONE',  #179 ) ;
#29 = AXIS2_PLACEMENT_3D ( 'NONE', #175, #196, #58 ) ;
#30 = PLANE ( 'NONE',  #206 ) ;
#31 = CC_DESIGN_SECURITY_CLASSIFICATION ( #54, ( #148 ) ) ;
#32 = DIRECTION ( 'NONE',  ( -3.491481338843133355E-15, 1.224646799147353207E-16, -1.000000000000000000 ) ) ;
#33 = CARTESIAN_POINT ( 'NONE',  ( -1.709385285495556133E-30, -0.2500000000000000000, -4.895874041996006311E-16 ) ) ;
#34 = ADVANCED_FACE ( 'NONE', ( #214, #40 ), #120, .T. ) ;
#35 = CARTESIAN_POINT ( 'NONE',  ( 1.326762908760390423E-13, -4.653657836759941941E-15, 38.00000000000000000 ) ) ;
#36 = PERSON_AND_ORGANIZATION_ROLE ( 'design_owner' ) ;
#37 = APPROVAL_ROLE ( '' ) ;
#38 = AXIS2_PLACEMENT_3D ( 'NONE', #180, #183, #63 ) ;
#39 =( NAMED_UNIT ( * ) PLANE_ANGLE_UNIT ( ) SI_UNIT ( $, .RADIAN. ) );
#40 = FACE_OUTER_BOUND ( 'NONE', #187, .T. ) ;
#41 = AXIS2_PLACEMENT_3D ( 'NONE', #105, #101, #138 ) ;
#42 = FACE_OUTER_BOUND ( 'NONE', #106, .T. ) ;
#43 = ORIENTED_EDGE ( 'NONE', *, *, #159, .F. ) ;
#44 = EDGE_LOOP ( 'NONE', ( #239 ) ) ;
#45 = DIRECTION ( 'NONE',  ( 3.491481338843133355E-15, -1.219242935835426903E-16, 1.000000000000000000 ) ) ;
#46 = AXIS2_PLACEMENT_3D ( 'NONE', #218, #45, #130 ) ;
#47 = LOCAL_TIME ( 16, 36, 4.000000000000000000, #208 ) ;
#48 = DIRECTION ( 'NONE',  ( 0.0000000000000000000, 1.000000000000000000, 0.0000000000000000000 ) ) ;
#49 = CARTESIAN_POINT ( 'NONE',  ( 4.364351673553915905E-15, -1.807003620809179069E-16, 1.249999999999999778 ) ) ;
#50 = DIRECTION ( 'NONE',  ( 0.0000000000000000000, -1.000000000000000000, 0.0000000000000000000 ) ) ;
#51 = CARTESIAN_POINT ( 'NONE',  ( -1.602961186545913301E-30, 5.597621506297520150E-32, -4.591063308037149092E-16 ) ) ;
#52 = ADVANCED_FACE ( 'NONE', ( #141, #42 ), #121, .T. ) ;
#53 = VERTEX_POINT ( 'NONE', #14 ) ;
#54 = SECURITY_CLASSIFICATION ( '', '', #158 ) ;
#55 = PERSON_AND_ORGANIZATION_ROLE ( 'creator' ) ;
#56 = APPROVAL ( #211, 'UNSPECIFIED' ) ;
#57 = DATE_AND_TIME ( #4, #151 ) ;
#58 = DIRECTION ( 'NONE',  ( 1.000000000000000000, 0.0000000000000000000, 0.0000000000000000000 ) ) ;
#59 = CONICAL_SURFACE ( 'NONE', #21, 2.499999999999995559, 0.2617993877991430240 ) ;
#60 = APPROVAL_PERSON_ORGANIZATION ( #112, #102, #234 ) ;
#61 = EDGE_LOOP ( 'NONE', ( #182 ) ) ;
#62 = DIRECTION ( 'NONE',  ( 3.491481338843133355E-15, -1.219242935835426903E-16, 1.000000000000000000 ) ) ;
#63 = DIRECTION ( 'NONE',  ( 4.275831445896958607E-31, 1.000000000000000000, 1.224646799147352961E-16 ) ) ;
#64 = EDGE_LOOP ( 'NONE', ( #103 ) ) ;
#65 = CC_DESIGN_DATE_AND_TIME_ASSIGNMENT ( #119, #192, ( #77 ) ) ;
#66 = ORIENTED_EDGE ( 'NONE', *, *, #159, .T. ) ;
#67 = CIRCLE ( 'NONE', #46, 0.3181483474218600449 ) ;
#68 = FACE_BOUND ( 'NONE', #162, .T. ) ;
#69 = PRODUCT_DEFINITION_SHAPE ( 'NONE', 'NONE',  #77 ) ;
#70 = DIRECTION ( 'NONE',  ( 3.491481338843133355E-15, -1.224646799147353207E-16, 1.000000000000000000 ) ) ;
#71 = DIRECTION ( 'NONE',  ( 3.491481338843133355E-15, -1.219242935835426903E-16, 1.000000000000000000 ) ) ;
#72 = AXIS2_PLACEMENT_3D ( 'NONE', #49, #88, #129 ) ;
#73 = CARTESIAN_POINT ( 'NONE',  ( 4.364351673553913539E-15, 0.0000000000000000000, 1.249999999999999112 ) ) ;
#74 = DIRECTION ( 'NONE',  ( -3.491481338843133355E-15, 1.224646799147353207E-16, -1.000000000000000000 ) ) ;
#75 = PRODUCT_RELATED_PRODUCT_CATEGORY ( 'detail', '', ( #169 ) ) ;
#76 = CALENDAR_DATE ( 2021, 16, 11 ) ;
#77 = PRODUCT_DEFINITION ( 'UNKNOWN', '', #148, #97 ) ;
#78 = ORGANIZATION ( 'UNSPECIFIED', 'UNSPECIFIED', '' ) ;
#79 = CALENDAR_DATE ( 2021, 16, 11 ) ;
#80 = PERSON_AND_ORGANIZATION_ROLE ( 'creator' ) ;
#81 = SHAPE_DEFINITION_REPRESENTATION ( #69, #184 ) ;
#82 = CC_DESIGN_PERSON_AND_ORGANIZATION_ASSIGNMENT ( #100, #55, ( #148 ) ) ;
#83 = ORIENTED_EDGE ( 'NONE', *, *, #128, .T. ) ;
#84 = FACE_OUTER_BOUND ( 'NONE', #10, .T. ) ;
#85 = CIRCLE ( 'NONE', #41, 0.2499999999999999445 ) ;
#86 = EDGE_LOOP ( 'NONE', ( #125 ) ) ;
#87 = ORIENTED_EDGE ( 'NONE', *, *, #128, .F. ) ;
#88 = DIRECTION ( 'NONE',  ( 3.491481338843133355E-15, -1.224646799147353207E-16, 1.000000000000000000 ) ) ;
#89 = AXIS2_PLACEMENT_3D ( 'NONE', #163, #123, #144 ) ;
#90 = CARTESIAN_POINT ( 'NONE',  ( 1.326762908760390423E-13, -4.653657836759941941E-15, 38.00000000000000000 ) ) ;
#91 = PERSON ( 'UNSPECIFIED', 'UNSPECIFIED', 'UNSPECIFIED', ('UNSPECIFIED'), ('UNSPECIFIED'), ('UNSPECIFIED') ) ;
#92 = PLANE ( 'NONE',  #132 ) ;
#93 = VERTEX_POINT ( 'NONE', #170 ) ;
#94 = CIRCLE ( 'NONE', #165, 1.499999999999996669 ) ;
#95 = DIRECTION ( 'NONE',  ( 0.0000000000000000000, 1.000000000000000000, 0.0000000000000000000 ) ) ;
#96 =( LENGTH_UNIT ( ) NAMED_UNIT ( * ) SI_UNIT ( .MILLI., .METRE. ) );
#97 = DESIGN_CONTEXT ( 'detailed design', #198, 'design' ) ;
#98 = EDGE_CURVE ( 'NONE', #166, #166, #67, .T. ) ;
#99 = PERSON_AND_ORGANIZATION ( #91, #78 ) ;
#100 = PERSON_AND_ORGANIZATION ( #91, #78 ) ;
#101 = DIRECTION ( 'NONE',  ( 3.491481338843133355E-15, -1.219242935835426903E-16, 1.000000000000000000 ) ) ;
#102 = APPROVAL ( #19, 'UNSPECIFIED' ) ;
#103 = ORIENTED_EDGE ( 'NONE', *, *, #24, .T. ) ;
#104 = CIRCLE ( 'NONE', #23, 0.2500000000000000000 ) ;
#105 = CARTESIAN_POINT ( 'NONE',  ( 4.364351673553913539E-15, -1.524053669794282642E-16, 1.249999999999999112 ) ) ;
#106 = EDGE_LOOP ( 'NONE', ( #43 ) ) ;
#107 = DIRECTION ( 'NONE',  ( -3.491481338843133355E-15, 1.219242935835426903E-16, -1.000000000000000000 ) ) ;
#108 = DIRECTION ( 'NONE',  ( 4.275831445896958607E-31, 1.000000000000000000, 1.224646799147353207E-16 ) ) ;
#109 = VERTEX_POINT ( 'NONE', #189 ) ;
#110 = CARTESIAN_POINT ( 'NONE',  ( 6.171675405779171497E-15, -0.3181483474218602669, 1.767638090205028156 ) ) ;
#111 = CARTESIAN_POINT ( 'NONE',  ( 1.316288464743861212E-13, 1.499999999999992228, 37.69999999999999574 ) ) ;
#112 = PERSON_AND_ORGANIZATION ( #91, #78 ) ;
#113 = ADVANCED_FACE ( 'NONE', ( #241, #149 ), #224, .F. ) ;
#114 = APPROVAL_ROLE ( '' ) ;
#115 = UNCERTAINTY_MEASURE_WITH_UNIT (LENGTH_MEASURE( 1.000000000000000082E-05 ), #96, 'distance_accuracy_value', 'NONE');
#116 = APPROVAL_PERSON_ORGANIZATION ( #209, #233, #37 ) ;
#117 = MANIFOLD_SOLID_BREP ( 'Corps-Déplacer/Copier1[1]', #215 ) ;
#118 = CC_DESIGN_PERSON_AND_ORGANIZATION_ASSIGNMENT ( #99, #160, ( #54 ) ) ;
#119 = DATE_AND_TIME ( #157, #219 ) ;
#120 = CYLINDRICAL_SURFACE ( 'NONE', #38, 1.499999999999994671 ) ;
#121 = CYLINDRICAL_SURFACE ( 'NONE', #89, 0.2500000000000000000 ) ;
#122 = ORIENTED_EDGE ( 'NONE', *, *, #98, .F. ) ;
#123 = DIRECTION ( 'NONE',  ( 3.491481338843133355E-15, -1.219242935835426903E-16, 1.000000000000000000 ) ) ;
#124 = ORIENTED_EDGE ( 'NONE', *, *, #220, .F. ) ;
#125 = ORIENTED_EDGE ( 'NONE', *, *, #98, .T. ) ;
#126 = CARTESIAN_POINT ( 'NONE',  ( 2.157165833843267958E-14, -7.532932154265509678E-16, 6.178368504635980862 ) ) ;
#127 = CARTESIAN_POINT ( 'NONE',  ( 1.326762908760390423E-13, 8.998558695971053960E-33, 38.00000000000000000 ) ) ;
#128 = EDGE_CURVE ( 'NONE', #53, #53, #150, .T. ) ;
#129 = DIRECTION ( 'NONE',  ( -4.275831445896958607E-31, -1.000000000000000000, -1.224646799147353207E-16 ) ) ;
#130 = DIRECTION ( 'NONE',  ( 0.0000000000000000000, -1.000000000000000000, 0.0000000000000000000 ) ) ;
#131 = DIRECTION ( 'NONE',  ( -3.491481338843133355E-15, 1.224646799147353207E-16, -1.000000000000000000 ) ) ;
#132 = AXIS2_PLACEMENT_3D ( 'NONE', #228, #204, #168 ) ;
#133 = ADVANCED_FACE ( 'NONE', ( #172 ), #28, .F. ) ;
#134 = APPLICATION_CONTEXT ( 'configuration controlled 3d designs of mechanical parts and assemblies' ) ;
#135 = DATE_TIME_ROLE ( 'classification_date' ) ;
#136 = APPROVAL_PERSON_ORGANIZATION ( #17, #56, #114 ) ;
#137 = CIRCLE ( 'NONE', #26, 1.199999999999996847 ) ;
#138 = DIRECTION ( 'NONE',  ( 0.0000000000000000000, -1.000000000000000000, 0.0000000000000000000 ) ) ;
#139 = LOCAL_TIME ( 16, 36, 4.000000000000000000, #194 ) ;
#140 = EDGE_CURVE ( 'NONE', #93, #93, #137, .T. ) ;
#141 = FACE_OUTER_BOUND ( 'NONE', #61, .T. ) ;
#142 = CC_DESIGN_APPROVAL ( #233, ( #54 ) ) ;
#143 = EDGE_LOOP ( 'NONE', ( #11 ) ) ;
#144 = DIRECTION ( 'NONE',  ( -4.256963957985708889E-31, -1.000000000000000000, -1.219242935835426903E-16 ) ) ;
#145 = DIRECTION ( 'NONE',  ( 3.491481338843133355E-15, -1.219242935835426903E-16, 1.000000000000000000 ) ) ;
#146 = ADVANCED_FACE ( 'NONE', ( #222 ), #30, .F. ) ;
#147 = PLANE ( 'NONE',  #72 ) ;
#148 = PRODUCT_DEFINITION_FORMATION_WITH_SPECIFIED_SOURCE ( 'ANY', '', #169, .NOT_KNOWN. ) ;
#149 = FACE_OUTER_BOUND ( 'NONE', #185, .T. ) ;
#150 = CIRCLE ( 'NONE', #181, 1.499999999999994671 ) ;
#151 = LOCAL_TIME ( 16, 36, 4.000000000000000000, #1 ) ;
#152 = ORIENTED_EDGE ( 'NONE', *, *, #236, .F. ) ;
#153 = CARTESIAN_POINT ( 'NONE',  ( 4.364351673553913539E-15, -0.2500000000000001110, 1.249999999999999112 ) ) ;
#154 = CARTESIAN_POINT ( 'NONE',  ( 1.316288464743861212E-13, -4.616918432785521081E-15, 37.69999999999999574 ) ) ;
#155 = PERSON_AND_ORGANIZATION ( #91, #78 ) ;
#156 =( GEOMETRIC_REPRESENTATION_CONTEXT ( 3 ) GLOBAL_UNCERTAINTY_ASSIGNED_CONTEXT ( ( #115 ) ) GLOBAL_UNIT_ASSIGNED_CONTEXT ( ( #96, #39, #231 ) ) REPRESENTATION_CONTEXT ( 'NONE', 'WORKASPACE' ) );
#157 = CALENDAR_DATE ( 2021, 16, 11 ) ;
#158 = SECURITY_CLASSIFICATION_LEVEL ( 'unclassified' ) ;
#159 = EDGE_CURVE ( 'NONE', #243, #243, #171, .T. ) ;
#160 = PERSON_AND_ORGANIZATION_ROLE ( 'classification_officer' ) ;
#161 = DATE_AND_TIME ( #79, #47 ) ;
#162 = EDGE_LOOP ( 'NONE', ( #238 ) ) ;
#163 = CARTESIAN_POINT ( 'NONE',  ( 0.0000000000000000000, 0.0000000000000000000, 0.0000000000000000000 ) ) ;
#164 = CC_DESIGN_PERSON_AND_ORGANIZATION_ASSIGNMENT ( #2, #80, ( #77 ) ) ;
#165 = AXIS2_PLACEMENT_3D ( 'NONE', #154, #32, #48 ) ;
#166 = VERTEX_POINT ( 'NONE', #110 ) ;
#167 = DIRECTION ( 'NONE',  ( 3.491481338843133355E-15, -1.219242935835426903E-16, 1.000000000000000000 ) ) ;
#168 = DIRECTION ( 'NONE',  ( -4.275831445896958607E-31, -1.000000000000000000, -1.224646799147353207E-16 ) ) ;
#169 = PRODUCT ( '966060', '966060', '', ( #207 ) ) ;
#170 = CARTESIAN_POINT ( 'NONE',  ( 1.326762908760390423E-13, 1.199999999999992406, 38.00000000000000000 ) ) ;
#171 = CIRCLE ( 'NONE', #210, 0.2499999999999999445 ) ;
#172 = FACE_OUTER_BOUND ( 'NONE', #143, .T. ) ;
#173 = ADVANCED_FACE ( 'NONE', ( #12 ), #147, .T. ) ;
#174 = APPROVAL_DATE_TIME ( #230, #56 ) ;
#175 = CARTESIAN_POINT ( 'NONE',  ( 0.0000000000000000000, 0.0000000000000000000, 0.0000000000000000000 ) ) ;
#176 = PERSON_AND_ORGANIZATION ( #91, #78 ) ;
#177 = APPLICATION_PROTOCOL_DEFINITION ( 'international standard', 'config_control_design', 1994, #134 ) ;
#178 = APPROVAL_STATUS ( 'not_yet_approved' ) ;
#179 = AXIS2_PLACEMENT_3D ( 'NONE', #127, #131, #108 ) ;
#180 = CARTESIAN_POINT ( 'NONE',  ( 0.0000000000000000000, 0.0000000000000000000, 0.0000000000000000000 ) ) ;
#181 = AXIS2_PLACEMENT_3D ( 'NONE', #126, #107, #50 ) ;
#182 = ORIENTED_EDGE ( 'NONE', *, *, #220, .T. ) ;
#183 = DIRECTION ( 'NONE',  ( -3.491481338843133355E-15, 1.224646799147353207E-16, -1.000000000000000000 ) ) ;
#184 = ADVANCED_BREP_SHAPE_REPRESENTATION ( '966060', ( #117, #201, #29 ), #156 ) ;
#185 = EDGE_LOOP ( 'NONE', ( #122 ) ) ;
#186 = CARTESIAN_POINT ( 'NONE',  ( -4.275811853558651348E-31, 1.499752910594655314E-32, -1.224641187678636516E-16 ) ) ;
#187 = EDGE_LOOP ( 'NONE', ( #87 ) ) ;
#188 = DIRECTION ( 'NONE',  ( -3.491481338843133355E-15, 1.224646799147353207E-16, -1.000000000000000000 ) ) ;
#189 = CARTESIAN_POINT ( 'NONE',  ( 4.364351673553913539E-15, -0.2500000000000001110, 1.249999999999999112 ) ) ;
#190 = VERTEX_POINT ( 'NONE', #111 ) ;
#191 = CC_DESIGN_APPROVAL ( #102, ( #77 ) ) ;
#192 = DATE_TIME_ROLE ( 'creation_date' ) ;
#193 = APPROVAL_DATE_TIME ( #161, #102 ) ;
#194 = COORDINATED_UNIVERSAL_TIME_OFFSET ( 1, 0, .AHEAD. ) ;
#195 = DATE_AND_TIME ( #76, #9 ) ;
#196 = DIRECTION ( 'NONE',  ( 0.0000000000000000000, 0.0000000000000000000, 1.000000000000000000 ) ) ;
#197 = CARTESIAN_POINT ( 'NONE',  ( 3.460204408867421053E-14, -1.208320873757288404E-15, 9.910419312204957976 ) ) ;
#198 = APPLICATION_CONTEXT ( 'configuration controlled 3d designs of mechanical parts and assemblies' ) ;
#199 = CONICAL_SURFACE ( 'NONE', #3, 1.199999999999996847, 0.7853981633974453924 ) ;
#200 = ADVANCED_FACE ( 'NONE', ( #205, #68 ), #199, .T. ) ;
#201 = MANIFOLD_SOLID_BREP ( 'Corps-Déplacer/Copier1[2]', #8 ) ;
#202 = CARTESIAN_POINT ( 'NONE',  ( 4.364351673553913539E-15, -1.524053669794282642E-16, 1.249999999999999112 ) ) ;
#203 = DIRECTION ( 'NONE',  ( -4.319447003640437456E-31, -1.000000000000000000, -1.219242935835426903E-16 ) ) ;
#204 = DIRECTION ( 'NONE',  ( 3.491481338843133355E-15, -1.224646799147353207E-16, 1.000000000000000000 ) ) ;
#205 = FACE_OUTER_BOUND ( 'NONE', #216, .T. ) ;
#206 = AXIS2_PLACEMENT_3D ( 'NONE', #186, #70, #16 ) ;
#207 = MECHANICAL_CONTEXT ( 'NONE', #134, 'mechanical' ) ;
#208 = COORDINATED_UNIVERSAL_TIME_OFFSET ( 1, 0, .AHEAD. ) ;
#209 = PERSON_AND_ORGANIZATION ( #91, #78 ) ;
#210 = AXIS2_PLACEMENT_3D ( 'NONE', #202, #145, #242 ) ;
#211 = APPROVAL_STATUS ( 'not_yet_approved' ) ;
#212 = ADVANCED_FACE ( 'NONE', ( #13 ), #92, .F. ) ;
#213 = COORDINATED_UNIVERSAL_TIME_OFFSET ( 1, 0, .AHEAD. ) ;
#214 = FACE_OUTER_BOUND ( 'NONE', #44, .T. ) ;
#215 = CLOSED_SHELL ( 'NONE', ( #34, #200, #133, #18, #113, #212 ) ) ;
#216 = EDGE_LOOP ( 'NONE', ( #152 ) ) ;
#217 = EDGE_LOOP ( 'NONE', ( #124 ) ) ;
#218 = CARTESIAN_POINT ( 'NONE',  ( 6.171675405779171497E-15, -2.155180254596105633E-16, 1.767638090205028156 ) ) ;
#219 = LOCAL_TIME ( 16, 36, 4.000000000000000000, #213 ) ;
#220 = EDGE_CURVE ( 'NONE', #227, #227, #104, .T. ) ;
#221 = EDGE_LOOP ( 'NONE', ( #235 ) ) ;
#222 = FACE_OUTER_BOUND ( 'NONE', #217, .T. ) ;
#223 = DIRECTION ( 'NONE',  ( 0.0000000000000000000, 1.000000000000000000, 0.0000000000000000000 ) ) ;
#224 = TOROIDAL_SURFACE ( 'NONE', #15, 2.250000000000000444, 2.000000000000000444 ) ;
#225 = DIRECTION ( 'NONE',  ( -4.256963957985712392E-31, -1.000000000000000000, -1.219242935835425424E-16 ) ) ;
#226 = CC_DESIGN_DATE_AND_TIME_ASSIGNMENT ( #57, #135, ( #54 ) ) ;
#227 = VERTEX_POINT ( 'NONE', #33 ) ;
#228 = CARTESIAN_POINT ( 'NONE',  ( 4.364351673553915905E-15, -1.807003620809179069E-16, 1.249999999999999778 ) ) ;
#229 = PERSON_AND_ORGANIZATION_ROLE ( 'design_supplier' ) ;
#230 = DATE_AND_TIME ( #20, #139 ) ;
#231 =( NAMED_UNIT ( * ) SI_UNIT ( $, .STERADIAN. ) SOLID_ANGLE_UNIT ( ) );
#232 = COORDINATED_UNIVERSAL_TIME_OFFSET ( 1, 0, .AHEAD. ) ;
#233 = APPROVAL ( #178, 'UNSPECIFIED' ) ;
#234 = APPROVAL_ROLE ( '' ) ;
#235 = ORIENTED_EDGE ( 'NONE', *, *, #24, .F. ) ;
#236 = EDGE_CURVE ( 'NONE', #190, #190, #94, .T. ) ;
#237 = DIRECTION ( 'NONE',  ( 0.0000000000000000000, -1.000000000000000000, 0.0000000000000000000 ) ) ;
#238 = ORIENTED_EDGE ( 'NONE', *, *, #140, .T. ) ;
#239 = ORIENTED_EDGE ( 'NONE', *, *, #236, .T. ) ;
#240 = CC_DESIGN_PERSON_AND_ORGANIZATION_ASSIGNMENT ( #155, #229, ( #148 ) ) ;
#241 = FACE_OUTER_BOUND ( 'NONE', #64, .T. ) ;
#242 = DIRECTION ( 'NONE',  ( 0.0000000000000000000, -1.000000000000000000, 0.0000000000000000000 ) ) ;
#243 = VERTEX_POINT ( 'NONE', #153 ) ;
ENDSEC;
END-ISO-10303-21;
