ISO-10303-21;
HEADER;
FILE_DESCRIPTION (( 'STEP AP203' ),
    '1' );
FILE_NAME ('966059.step',
    '2021-11-16T15:36:03',
    ( '' ),
    ( '' ),
    'SwSTEP 2.0',
    'SolidWorks 2019',
    '' );
FILE_SCHEMA (( 'CONFIG_CONTROL_DESIGN' ));
ENDSEC;

DATA;
#1 =( NAMED_UNIT ( * ) SI_UNIT ( $, .STERADIAN. ) SOLID_ANGLE_UNIT ( ) );
#2 = DIRECTION ( 'NONE',  ( -4.275831445896958607E-31, -1.000000000000000000, -1.224646799147353207E-16 ) ) ;
#3 = DATE_AND_TIME ( #46, #204 ) ;
#4 = DESIGN_CONTEXT ( 'detailed design', #106, 'design' ) ;
#5 = APPROVAL_STATUS ( 'not_yet_approved' ) ;
#6 = COORDINATED_UNIVERSAL_TIME_OFFSET ( 1, 0, .AHEAD. ) ;
#7 = PERSON_AND_ORGANIZATION_ROLE ( 'creator' ) ;
#8 = DIRECTION ( 'NONE',  ( -4.319816725804075743E-31, -1.000000000000000000, -1.219242935835426903E-16 ) ) ;
#9 = AXIS2_PLACEMENT_3D ( 'NONE', #226, #163, #125 ) ;
#10 = CARTESIAN_POINT ( 'NONE',  ( 3.840629472727444324E-15, -0.2250000000000001998, 1.099999999999999201 ) ) ;
#11 = EDGE_LOOP ( 'NONE', ( #81 ) ) ;
#12 = ADVANCED_FACE ( 'NONE', ( #84 ), #234, .F. ) ;
#13 = ORIENTED_EDGE ( 'NONE', *, *, #170, .F. ) ;
#14 = ORIENTED_EDGE ( 'NONE', *, *, #178, .F. ) ;
#15 = AXIS2_PLACEMENT_3D ( 'NONE', #76, #37, #24 ) ;
#16 = CARTESIAN_POINT ( 'NONE',  ( 3.840629472727446691E-15, -1.590163186312077443E-16, 1.099999999999999867 ) ) ;
#17 = DIRECTION ( 'NONE',  ( 0.0000000000000000000, -1.000000000000000000, 0.0000000000000000000 ) ) ;
#18 = ADVANCED_FACE ( 'NONE', ( #148, #180 ), #70, .T. ) ;
#19 = FACE_OUTER_BOUND ( 'NONE', #85, .T. ) ;
#20 = CIRCLE ( 'NONE', #236, 0.2931483474218601892 ) ;
#21 = DIRECTION ( 'NONE',  ( 4.275831445896958607E-31, 1.000000000000000000, 1.224646799147352961E-16 ) ) ;
#22 = DATE_TIME_ROLE ( 'classification_date' ) ;
#23 = ADVANCED_FACE ( 'NONE', ( #200, #165 ), #77, .T. ) ;
#24 = DIRECTION ( 'NONE',  ( -4.275831445896958607E-31, -1.000000000000000000, -1.224646799147353207E-16 ) ) ;
#25 = DIRECTION ( 'NONE',  ( 0.0000000000000000000, 0.0000000000000000000, 1.000000000000000000 ) ) ;
#26 = COORDINATED_UNIVERSAL_TIME_OFFSET ( 1, 0, .AHEAD. ) ;
#27 = ADVANCED_BREP_SHAPE_REPRESENTATION ( '966059', ( #139, #222, #105 ), #142 ) ;
#28 = PERSON_AND_ORGANIZATION ( #127, #239 ) ;
#29 = ORIENTED_EDGE ( 'NONE', *, *, #49, .F. ) ;
#30 = ORIENTED_EDGE ( 'NONE', *, *, #35, .F. ) ;
#31 = AXIS2_PLACEMENT_3D ( 'NONE', #88, #181, #21 ) ;
#32 = ORIENTED_EDGE ( 'NONE', *, *, #138, .F. ) ;
#33 = PERSON_AND_ORGANIZATION_ROLE ( 'creator' ) ;
#34 = DIRECTION ( 'NONE',  ( 3.491481338843133355E-15, -1.219242935835426903E-16, 1.000000000000000000 ) ) ;
#35 = EDGE_CURVE ( 'NONE', #190, #190, #196, .T. ) ;
#36 = APPROVAL_PERSON_ORGANIZATION ( #188, #71, #91 ) ;
#37 = DIRECTION ( 'NONE',  ( 3.491481338843133355E-15, -1.224646799147353207E-16, 1.000000000000000000 ) ) ;
#38 = APPROVAL ( #45, 'UNSPECIFIED' ) ;
#39 = DIRECTION ( 'NONE',  ( 0.0000000000000000000, -1.000000000000000000, 0.0000000000000000000 ) ) ;
#40 = SECURITY_CLASSIFICATION_LEVEL ( 'unclassified' ) ;
#41 = DIRECTION ( 'NONE',  ( -3.491481338843133355E-15, 1.219242935835426903E-16, -1.000000000000000000 ) ) ;
#42 = FACE_OUTER_BOUND ( 'NONE', #101, .T. ) ;
#43 = LOCAL_TIME ( 16, 36, 3.000000000000000000, #26 ) ;
#44 = CARTESIAN_POINT ( 'NONE',  ( 1.316288464743861212E-13, 1.499999999999992228, 37.69999999999999574 ) ) ;
#45 = APPROVAL_STATUS ( 'not_yet_approved' ) ;
#46 = CALENDAR_DATE ( 2021, 16, 11 ) ;
#47 = PERSON_AND_ORGANIZATION_ROLE ( 'design_owner' ) ;
#48 = EDGE_LOOP ( 'NONE', ( #123 ) ) ;
#49 = EDGE_CURVE ( 'NONE', #99, #99, #157, .T. ) ;
#50 = APPROVAL_PERSON_ORGANIZATION ( #62, #38, #186 ) ;
#51 = CARTESIAN_POINT ( 'NONE',  ( 5.647953204952700705E-15, -0.2931483474218604113, 1.617638090205028245 ) ) ;
#52 = DIRECTION ( 'NONE',  ( 3.491481338843133355E-15, -1.224646799147353207E-16, 1.000000000000000000 ) ) ;
#53 = CARTESIAN_POINT ( 'NONE',  ( 3.440408153160377872E-14, -1.201407921178025427E-15, 9.853720582394181804 ) ) ;
#54 = CIRCLE ( 'NONE', #155, 1.499999999999994671 ) ;
#55 = CARTESIAN_POINT ( 'NONE',  ( 1.316288464743861212E-13, -4.616918432785521081E-15, 37.69999999999999574 ) ) ;
#56 = ADVANCED_FACE ( 'NONE', ( #58, #221 ), #168, .T. ) ;
#57 = PLANE ( 'NONE',  #203 ) ;
#58 = FACE_BOUND ( 'NONE', #67, .T. ) ;
#59 = COORDINATED_UNIVERSAL_TIME_OFFSET ( 1, 0, .AHEAD. ) ;
#60 = AXIS2_PLACEMENT_3D ( 'NONE', #243, #75, #116 ) ;
#61 = LOCAL_TIME ( 16, 36, 3.000000000000000000, #129 ) ;
#62 = PERSON_AND_ORGANIZATION ( #127, #239 ) ;
#63 = APPROVAL_DATE_TIME ( #151, #38 ) ;
#64 = APPLICATION_PROTOCOL_DEFINITION ( 'international standard', 'config_control_design', 1994, #106 ) ;
#65 = EDGE_LOOP ( 'NONE', ( #32 ) ) ;
#66 = ADVANCED_FACE ( 'NONE', ( #177 ), #57, .F. ) ;
#67 = EDGE_LOOP ( 'NONE', ( #219 ) ) ;
#68 = CIRCLE ( 'NONE', #210, 0.2250000000000000888 ) ;
#69 = AXIS2_PLACEMENT_3D ( 'NONE', #146, #224, #140 ) ;
#70 = CYLINDRICAL_SURFACE ( 'NONE', #175, 0.2250000000000000056 ) ;
#71 = APPROVAL ( #5, 'UNSPECIFIED' ) ;
#72 = CARTESIAN_POINT ( 'NONE',  ( 5.647953204952700705E-15, -1.972293814220791745E-16, 1.617638090205028245 ) ) ;
#73 = AXIS2_PLACEMENT_3D ( 'NONE', #55, #110, #162 ) ;
#74 = DIRECTION ( 'NONE',  ( 0.0000000000000000000, -1.000000000000000000, 0.0000000000000000000 ) ) ;
#75 = DIRECTION ( 'NONE',  ( -3.491481338843133355E-15, 1.224646799147353207E-16, -1.000000000000000000 ) ) ;
#76 = CARTESIAN_POINT ( 'NONE',  ( 3.840629472727446691E-15, -1.590163186312077443E-16, 1.099999999999999867 ) ) ;
#77 = CONICAL_SURFACE ( 'NONE', #69, 1.199999999999996847, 0.7853981633974453924 ) ;
#78 = SECURITY_CLASSIFICATION ( '', '', #40 ) ;
#79 = ADVANCED_FACE ( 'NONE', ( #240 ), #87, .T. ) ;
#80 = PRODUCT_DEFINITION ( 'UNKNOWN', '', #95, #4 ) ;
#81 = ORIENTED_EDGE ( 'NONE', *, *, #102, .T. ) ;
#82 = CARTESIAN_POINT ( 'NONE',  ( -1.688100465705627707E-30, -0.2249999999999999500, -4.834911895204235262E-16 ) ) ;
#83 = CARTESIAN_POINT ( 'NONE',  ( 3.840629472727444324E-15, 0.0000000000000000000, 1.099999999999999201 ) ) ;
#84 = FACE_OUTER_BOUND ( 'NONE', #154, .T. ) ;
#85 = EDGE_LOOP ( 'NONE', ( #14 ) ) ;
#86 = TOROIDAL_SURFACE ( 'NONE', #149, 2.225000000000000089, 2.000000000000000000 ) ;
#87 = PLANE ( 'NONE',  #100 ) ;
#88 = CARTESIAN_POINT ( 'NONE',  ( 0.0000000000000000000, 0.0000000000000000000, 0.0000000000000000000 ) ) ;
#89 = CYLINDRICAL_SURFACE ( 'NONE', #31, 1.499999999999994671 ) ;
#90 = APPROVAL_DATE_TIME ( #111, #193 ) ;
#91 = APPROVAL_ROLE ( '' ) ;
#92 = UNCERTAINTY_MEASURE_WITH_UNIT (LENGTH_MEASURE( 1.000000000000000082E-05 ), #189, 'distance_accuracy_value', 'NONE');
#93 = CALENDAR_DATE ( 2021, 16, 11 ) ;
#94 = AXIS2_PLACEMENT_3D ( 'NONE', #53, #34, #17 ) ;
#95 = PRODUCT_DEFINITION_FORMATION_WITH_SPECIFIED_SOURCE ( 'ANY', '', #208, .NOT_KNOWN. ) ;
#96 = CARTESIAN_POINT ( 'NONE',  ( 0.0000000000000000000, 0.0000000000000000000, 0.0000000000000000000 ) ) ;
#97 =( NAMED_UNIT ( * ) PLANE_ANGLE_UNIT ( ) SI_UNIT ( $, .RADIAN. ) );
#98 = ORIENTED_EDGE ( 'NONE', *, *, #138, .T. ) ;
#99 = VERTEX_POINT ( 'NONE', #10 ) ;
#100 = AXIS2_PLACEMENT_3D ( 'NONE', #16, #52, #2 ) ;
#101 = EDGE_LOOP ( 'NONE', ( #29 ) ) ;
#102 = EDGE_CURVE ( 'NONE', #206, #206, #120, .T. ) ;
#103 = CC_DESIGN_DATE_AND_TIME_ASSIGNMENT ( #205, #227, ( #80 ) ) ;
#104 = EDGE_LOOP ( 'NONE', ( #98 ) ) ;
#105 = AXIS2_PLACEMENT_3D ( 'NONE', #96, #25, #230 ) ;
#106 = APPLICATION_CONTEXT ( 'configuration controlled 3d designs of mechanical parts and assemblies' ) ;
#107 = CARTESIAN_POINT ( 'NONE',  ( 3.840629472727444324E-15, -1.341167229418968508E-16, 1.099999999999999201 ) ) ;
#108 = FACE_OUTER_BOUND ( 'NONE', #11, .T. ) ;
#109 = CC_DESIGN_PERSON_AND_ORGANIZATION_ASSIGNMENT ( #166, #47, ( #208 ) ) ;
#110 = DIRECTION ( 'NONE',  ( -3.491481338843133355E-15, 1.224646799147353207E-16, -1.000000000000000000 ) ) ;
#111 = DATE_AND_TIME ( #225, #61 ) ;
#112 = CARTESIAN_POINT ( 'NONE',  ( 2.137369578136225093E-14, -1.499999999999995337, 6.121669774825205579 ) ) ;
#113 = CARTESIAN_POINT ( 'NONE',  ( -4.275811853558651348E-31, 1.499752910594655314E-32, -1.224641187678636516E-16 ) ) ;
#114 = VERTEX_POINT ( 'NONE', #185 ) ;
#115 = PRODUCT_DEFINITION_SHAPE ( 'NONE', 'NONE',  #80 ) ;
#116 = DIRECTION ( 'NONE',  ( 0.0000000000000000000, 1.000000000000000000, 0.0000000000000000000 ) ) ;
#117 = PERSON_AND_ORGANIZATION ( #127, #239 ) ;
#118 = FACE_OUTER_BOUND ( 'NONE', #191, .T. ) ;
#119 = CARTESIAN_POINT ( 'NONE',  ( 1.326762908760390423E-13, 1.199999999999992406, 38.00000000000000000 ) ) ;
#120 = CIRCLE ( 'NONE', #73, 1.499999999999996669 ) ;
#121 = CC_DESIGN_APPROVAL ( #71, ( #80 ) ) ;
#122 = PERSON_AND_ORGANIZATION ( #127, #239 ) ;
#123 = ORIENTED_EDGE ( 'NONE', *, *, #197, .F. ) ;
#124 = CARTESIAN_POINT ( 'NONE',  ( 1.326762908760390423E-13, 8.998558695971053960E-33, 38.00000000000000000 ) ) ;
#125 = DIRECTION ( 'NONE',  ( -4.256963957985710640E-31, -1.000000000000000000, -1.219242935835426903E-16 ) ) ;
#126 = DIRECTION ( 'NONE',  ( -4.256963957985708889E-31, -1.000000000000000000, -1.219242935835426656E-16 ) ) ;
#127 = PERSON ( 'UNSPECIFIED', 'UNSPECIFIED', 'UNSPECIFIED', ('UNSPECIFIED'), ('UNSPECIFIED'), ('UNSPECIFIED') ) ;
#128 = DIRECTION ( 'NONE',  ( 3.491481338843133355E-15, -1.224646799147353207E-16, 1.000000000000000000 ) ) ;
#129 = COORDINATED_UNIVERSAL_TIME_OFFSET ( 1, 0, .AHEAD. ) ;
#130 = CALENDAR_DATE ( 2021, 16, 11 ) ;
#131 = FACE_OUTER_BOUND ( 'NONE', #232, .T. ) ;
#132 = APPROVAL_STATUS ( 'not_yet_approved' ) ;
#133 = VERTEX_POINT ( 'NONE', #51 ) ;
#134 = APPROVAL_DATE_TIME ( #3, #71 ) ;
#135 = LOCAL_TIME ( 16, 36, 3.000000000000000000, #6 ) ;
#136 = VERTEX_POINT ( 'NONE', #119 ) ;
#137 = ORIENTED_EDGE ( 'NONE', *, *, #102, .F. ) ;
#138 = EDGE_CURVE ( 'NONE', #114, #114, #68, .T. ) ;
#139 = MANIFOLD_SOLID_BREP ( 'Corps-Déplacer/Copier1[1]', #182 ) ;
#140 = DIRECTION ( 'NONE',  ( 0.0000000000000000000, 1.000000000000000000, 0.0000000000000000000 ) ) ;
#141 = DIRECTION ( 'NONE',  ( 3.491481338843133355E-15, -1.219242935835426903E-16, 1.000000000000000000 ) ) ;
#142 =( GEOMETRIC_REPRESENTATION_CONTEXT ( 3 ) GLOBAL_UNCERTAINTY_ASSIGNED_CONTEXT ( ( #92 ) ) GLOBAL_UNIT_ASSIGNED_CONTEXT ( ( #189, #97, #1 ) ) REPRESENTATION_CONTEXT ( 'NONE', 'WORKASPACE' ) );
#143 = LOCAL_TIME ( 16, 36, 3.000000000000000000, #59 ) ;
#144 = DIRECTION ( 'NONE',  ( 0.0000000000000000000, -1.000000000000000000, 0.0000000000000000000 ) ) ;
#145 = PERSON_AND_ORGANIZATION ( #127, #239 ) ;
#146 = CARTESIAN_POINT ( 'NONE',  ( 1.326762908760390423E-13, -4.653657836759941941E-15, 38.00000000000000000 ) ) ;
#147 = COORDINATED_UNIVERSAL_TIME_OFFSET ( 1, 0, .AHEAD. ) ;
#148 = FACE_OUTER_BOUND ( 'NONE', #233, .T. ) ;
#149 = AXIS2_PLACEMENT_3D ( 'NONE', #83, #150, #8 ) ;
#150 = DIRECTION ( 'NONE',  ( 3.491481338843133355E-15, -1.219242935835426903E-16, 1.000000000000000000 ) ) ;
#151 = DATE_AND_TIME ( #93, #43 ) ;
#152 = DATE_AND_TIME ( #242, #135 ) ;
#153 = CC_DESIGN_PERSON_AND_ORGANIZATION_ASSIGNMENT ( #122, #173, ( #95 ) ) ;
#154 = EDGE_LOOP ( 'NONE', ( #30 ) ) ;
#155 = AXIS2_PLACEMENT_3D ( 'NONE', #199, #41, #144 ) ;
#156 = EDGE_LOOP ( 'NONE', ( #137 ) ) ;
#157 = CIRCLE ( 'NONE', #183, 0.2250000000000000888 ) ;
#158 = DIRECTION ( 'NONE',  ( 0.0000000000000000000, -1.000000000000000000, 0.0000000000000000000 ) ) ;
#159 = CC_DESIGN_DATE_AND_TIME_ASSIGNMENT ( #152, #22, ( #78 ) ) ;
#160 = CIRCLE ( 'NONE', #60, 1.199999999999996847 ) ;
#161 = ADVANCED_FACE ( 'NONE', ( #42 ), #238, .F. ) ;
#162 = DIRECTION ( 'NONE',  ( 0.0000000000000000000, 1.000000000000000000, 0.0000000000000000000 ) ) ;
#163 = DIRECTION ( 'NONE',  ( 3.491481338843133355E-15, -1.219242935835426903E-16, 1.000000000000000000 ) ) ;
#164 = APPROVAL_ROLE ( '' ) ;
#165 = FACE_BOUND ( 'NONE', #215, .T. ) ;
#166 = PERSON_AND_ORGANIZATION ( #127, #239 ) ;
#167 = DIRECTION ( 'NONE',  ( 4.275831445896958607E-31, 1.000000000000000000, 1.224646799147353207E-16 ) ) ;
#168 = CONICAL_SURFACE ( 'NONE', #94, 2.499999999999995559, 0.2617993877991430796 ) ;
#169 = CC_DESIGN_SECURITY_CLASSIFICATION ( #78, ( #95 ) ) ;
#170 = EDGE_CURVE ( 'NONE', #133, #133, #20, .T. ) ;
#171 = EDGE_LOOP ( 'NONE', ( #194 ) ) ;
#172 = ORIENTED_EDGE ( 'NONE', *, *, #49, .T. ) ;
#173 = PERSON_AND_ORGANIZATION_ROLE ( 'design_supplier' ) ;
#174 = ORIENTED_EDGE ( 'NONE', *, *, #35, .T. ) ;
#175 = AXIS2_PLACEMENT_3D ( 'NONE', #195, #184, #126 ) ;
#176 = APPROVAL_PERSON_ORGANIZATION ( #145, #193, #164 ) ;
#177 = FACE_OUTER_BOUND ( 'NONE', #48, .T. ) ;
#178 = EDGE_CURVE ( 'NONE', #231, #231, #54, .T. ) ;
#179 = CARTESIAN_POINT ( 'NONE',  ( 3.840629472727444324E-15, -1.341167229418968508E-16, 1.099999999999999201 ) ) ;
#180 = FACE_OUTER_BOUND ( 'NONE', #65, .T. ) ;
#181 = DIRECTION ( 'NONE',  ( -3.491481338843133355E-15, 1.224646799147353207E-16, -1.000000000000000000 ) ) ;
#182 = CLOSED_SHELL ( 'NONE', ( #187, #23, #66, #56, #217, #161 ) ) ;
#183 = AXIS2_PLACEMENT_3D ( 'NONE', #179, #141, #39 ) ;
#184 = DIRECTION ( 'NONE',  ( 3.491481338843133355E-15, -1.219242935835426903E-16, 1.000000000000000000 ) ) ;
#185 = CARTESIAN_POINT ( 'NONE',  ( 3.840629472727444324E-15, -0.2250000000000001998, 1.099999999999999201 ) ) ;
#186 = APPROVAL_ROLE ( '' ) ;
#187 = ADVANCED_FACE ( 'NONE', ( #108, #19 ), #89, .T. ) ;
#188 = PERSON_AND_ORGANIZATION ( #127, #239 ) ;
#189 =( LENGTH_UNIT ( ) NAMED_UNIT ( * ) SI_UNIT ( .MILLI., .METRE. ) );
#190 = VERTEX_POINT ( 'NONE', #82 ) ;
#191 = EDGE_LOOP ( 'NONE', ( #172 ) ) ;
#192 = CLOSED_SHELL ( 'NONE', ( #79, #18, #12 ) ) ;
#193 = APPROVAL ( #132, 'UNSPECIFIED' ) ;
#194 = ORIENTED_EDGE ( 'NONE', *, *, #178, .T. ) ;
#195 = CARTESIAN_POINT ( 'NONE',  ( 0.0000000000000000000, 0.0000000000000000000, 0.0000000000000000000 ) ) ;
#196 = CIRCLE ( 'NONE', #9, 0.2249999999999999500 ) ;
#197 = EDGE_CURVE ( 'NONE', #136, #136, #160, .T. ) ;
#198 = DIRECTION ( 'NONE',  ( -3.491481338843133355E-15, 1.224646799147353207E-16, -1.000000000000000000 ) ) ;
#199 = CARTESIAN_POINT ( 'NONE',  ( 2.137369578136225093E-14, -7.463802628472878917E-16, 6.121669774825205579 ) ) ;
#200 = FACE_OUTER_BOUND ( 'NONE', #156, .T. ) ;
#201 = PERSON_AND_ORGANIZATION_ROLE ( 'classification_officer' ) ;
#202 = DIRECTION ( 'NONE',  ( 3.491481338843133355E-15, -1.219242935835426903E-16, 1.000000000000000000 ) ) ;
#203 = AXIS2_PLACEMENT_3D ( 'NONE', #124, #198, #167 ) ;
#204 = LOCAL_TIME ( 16, 36, 3.000000000000000000, #147 ) ;
#205 = DATE_AND_TIME ( #130, #143 ) ;
#206 = VERTEX_POINT ( 'NONE', #44 ) ;
#207 = SHAPE_DEFINITION_REPRESENTATION ( #115, #27 ) ;
#208 = PRODUCT ( '966059', '966059', '', ( #209 ) ) ;
#209 = MECHANICAL_CONTEXT ( 'NONE', #212, 'mechanical' ) ;
#210 = AXIS2_PLACEMENT_3D ( 'NONE', #107, #202, #158 ) ;
#211 = APPLICATION_PROTOCOL_DEFINITION ( 'international standard', 'config_control_design', 1994, #212 ) ;
#212 = APPLICATION_CONTEXT ( 'configuration controlled 3d designs of mechanical parts and assemblies' ) ;
#213 = ORIENTED_EDGE ( 'NONE', *, *, #197, .T. ) ;
#214 = CC_DESIGN_PERSON_AND_ORGANIZATION_ASSIGNMENT ( #117, #33, ( #95 ) ) ;
#215 = EDGE_LOOP ( 'NONE', ( #213 ) ) ;
#216 = CC_DESIGN_APPROVAL ( #193, ( #78 ) ) ;
#217 = ADVANCED_FACE ( 'NONE', ( #118, #131 ), #86, .F. ) ;
#218 = PRODUCT_RELATED_PRODUCT_CATEGORY ( 'detail', '', ( #208 ) ) ;
#219 = ORIENTED_EDGE ( 'NONE', *, *, #170, .T. ) ;
#220 = AXIS2_PLACEMENT_3D ( 'NONE', #113, #128, #237 ) ;
#221 = FACE_OUTER_BOUND ( 'NONE', #171, .T. ) ;
#222 = MANIFOLD_SOLID_BREP ( 'Corps-Déplacer/Copier1[2]', #192 ) ;
#223 = DIRECTION ( 'NONE',  ( 3.491481338843133355E-15, -1.219242935835426903E-16, 1.000000000000000000 ) ) ;
#224 = DIRECTION ( 'NONE',  ( -3.491481338843133355E-15, 1.224646799147353207E-16, -1.000000000000000000 ) ) ;
#225 = CALENDAR_DATE ( 2021, 16, 11 ) ;
#226 = CARTESIAN_POINT ( 'NONE',  ( -1.592318776650949263E-30, 5.560457672882906753E-32, -4.560582234641264554E-16 ) ) ;
#227 = DATE_TIME_ROLE ( 'creation_date' ) ;
#228 = CC_DESIGN_PERSON_AND_ORGANIZATION_ASSIGNMENT ( #229, #7, ( #80 ) ) ;
#229 = PERSON_AND_ORGANIZATION ( #127, #239 ) ;
#230 = DIRECTION ( 'NONE',  ( 1.000000000000000000, 0.0000000000000000000, 0.0000000000000000000 ) ) ;
#231 = VERTEX_POINT ( 'NONE', #112 ) ;
#232 = EDGE_LOOP ( 'NONE', ( #13 ) ) ;
#233 = EDGE_LOOP ( 'NONE', ( #174 ) ) ;
#234 = PLANE ( 'NONE',  #220 ) ;
#235 = CC_DESIGN_PERSON_AND_ORGANIZATION_ASSIGNMENT ( #28, #201, ( #78 ) ) ;
#236 = AXIS2_PLACEMENT_3D ( 'NONE', #72, #223, #74 ) ;
#237 = DIRECTION ( 'NONE',  ( -4.275831445896958607E-31, -1.000000000000000000, -1.224646799147353207E-16 ) ) ;
#238 = PLANE ( 'NONE',  #15 ) ;
#239 = ORGANIZATION ( 'UNSPECIFIED', 'UNSPECIFIED', '' ) ;
#240 = FACE_OUTER_BOUND ( 'NONE', #104, .T. ) ;
#241 = CC_DESIGN_APPROVAL ( #38, ( #95 ) ) ;
#242 = CALENDAR_DATE ( 2021, 16, 11 ) ;
#243 = CARTESIAN_POINT ( 'NONE',  ( 1.326762908760390423E-13, -4.653657836759941941E-15, 38.00000000000000000 ) ) ;
ENDSEC;
END-ISO-10303-21;
