ISO-10303-21;
HEADER;
FILE_DESCRIPTION (( 'STEP AP203' ),
    '1' );
FILE_NAME ('966057.step',
    '2021-11-16T15:36:02',
    ( '' ),
    ( '' ),
    'SwSTEP 2.0',
    'SolidWorks 2019',
    '' );
FILE_SCHEMA (( 'CONFIG_CONTROL_DESIGN' ));
ENDSEC;

DATA;
#1 = AXIS2_PLACEMENT_3D ( 'NONE', #158, #172, #118 ) ;
#2 = CC_DESIGN_PERSON_AND_ORGANIZATION_ASSIGNMENT ( #237, #134, ( #111 ) ) ;
#3 = AXIS2_PLACEMENT_3D ( 'NONE', #6, #171, #78 ) ;
#4 = SHAPE_DEFINITION_REPRESENTATION ( #238, #101 ) ;
#5 = ADVANCED_FACE ( 'NONE', ( #230 ), #142, .F. ) ;
#6 = CARTESIAN_POINT ( 'NONE',  ( 3.142333204958818836E-15, 1.124819836996387322E-32, 0.8999999999999996891 ) ) ;
#7 = EDGE_LOOP ( 'NONE', ( #102 ) ) ;
#8 = DIRECTION ( 'NONE',  ( 0.0000000000000000000, -1.000000000000000000, 0.0000000000000000000 ) ) ;
#9 = FACE_OUTER_BOUND ( 'NONE', #140, .T. ) ;
#10 = AXIS2_PLACEMENT_3D ( 'NONE', #159, #188, #8 ) ;
#11 = CARTESIAN_POINT ( 'NONE',  ( 1.326762908760390423E-13, -4.653657836759941941E-15, 38.00000000000000000 ) ) ;
#12 = PERSON_AND_ORGANIZATION ( #123, #37 ) ;
#13 = CIRCLE ( 'NONE', #33, 1.199999999999996847 ) ;
#14 = CC_DESIGN_PERSON_AND_ORGANIZATION_ASSIGNMENT ( #67, #70, ( #243 ) ) ;
#15 = CARTESIAN_POINT ( 'NONE',  ( 3.142333204958819231E-15, -0.1750000000000004607, 0.8999999999999998002 ) ) ;
#16 = DATE_AND_TIME ( #204, #184 ) ;
#17 = CALENDAR_DATE ( 2021, 16, 11 ) ;
#18 = CC_DESIGN_SECURITY_CLASSIFICATION ( #25, ( #111 ) ) ;
#19 = ORIENTED_EDGE ( 'NONE', *, *, #201, .F. ) ;
#20 = DIRECTION ( 'NONE',  ( -4.256963957985714144E-31, -1.000000000000000000, -1.219242935835428875E-16 ) ) ;
#21 = EDGE_CURVE ( 'NONE', #63, #63, #205, .T. ) ;
#22 = APPLICATION_CONTEXT ( 'configuration controlled 3d designs of mechanical parts and assemblies' ) ;
#23 = CONICAL_SURFACE ( 'NONE', #224, 2.499999999999995559, 0.2617993877991429685 ) ;
#24 = DIRECTION ( 'NONE',  ( 0.0000000000000000000, 1.000000000000000000, 0.0000000000000000000 ) ) ;
#25 = SECURITY_CLASSIFICATION ( '', '', #186 ) ;
#26 = DIRECTION ( 'NONE',  ( 3.491481338843133355E-15, -1.219242935835426903E-16, 1.000000000000000000 ) ) ;
#27 = CARTESIAN_POINT ( 'NONE',  ( 0.0000000000000000000, 0.0000000000000000000, 0.0000000000000000000 ) ) ;
#28 = FACE_OUTER_BOUND ( 'NONE', #209, .T. ) ;
#29 =( GEOMETRIC_REPRESENTATION_CONTEXT ( 3 ) GLOBAL_UNCERTAINTY_ASSIGNED_CONTEXT ( ( #35 ) ) GLOBAL_UNIT_ASSIGNED_CONTEXT ( ( #164, #220, #144 ) ) REPRESENTATION_CONTEXT ( 'NONE', 'WORKASPACE' ) );
#30 = DATE_TIME_ROLE ( 'creation_date' ) ;
#31 = PRODUCT_DEFINITION ( 'UNKNOWN', '', #111, #92 ) ;
#32 = APPROVAL_DATE_TIME ( #203, #192 ) ;
#33 = AXIS2_PLACEMENT_3D ( 'NONE', #11, #138, #40 ) ;
#34 = PERSON_AND_ORGANIZATION ( #123, #37 ) ;
#35 = UNCERTAINTY_MEASURE_WITH_UNIT (LENGTH_MEASURE( 1.000000000000000082E-05 ), #164, 'distance_accuracy_value', 'NONE');
#36 = APPROVAL_ROLE ( '' ) ;
#37 = ORGANIZATION ( 'UNSPECIFIED', 'UNSPECIFIED', '' ) ;
#38 = PERSON_AND_ORGANIZATION_ROLE ( 'classification_officer' ) ;
#39 = ADVANCED_FACE ( 'NONE', ( #157, #210 ), #239, .F. ) ;
#40 = DIRECTION ( 'NONE',  ( 0.0000000000000000000, 1.000000000000000000, 0.0000000000000000000 ) ) ;
#41 = DIRECTION ( 'NONE',  ( 0.0000000000000000000, -1.000000000000000000, 0.0000000000000000000 ) ) ;
#42 = CARTESIAN_POINT ( 'NONE',  ( 3.142333204958818836E-15, 1.124819836996387322E-32, 0.8999999999999996891 ) ) ;
#43 = APPLICATION_CONTEXT ( 'configuration controlled 3d designs of mechanical parts and assemblies' ) ;
#44 = CARTESIAN_POINT ( 'NONE',  ( 3.142333204958819231E-15, -1.097318642251883818E-16, 0.8999999999999998002 ) ) ;
#45 = DIRECTION ( 'NONE',  ( 3.491481338843133355E-15, -1.224646799147353207E-16, 1.000000000000000000 ) ) ;
#46 = EDGE_CURVE ( 'NONE', #195, #195, #109, .T. ) ;
#47 = VERTEX_POINT ( 'NONE', #145 ) ;
#48 = COORDINATED_UNIVERSAL_TIME_OFFSET ( 1, 0, .AHEAD. ) ;
#49 = PRODUCT_RELATED_PRODUCT_CATEGORY ( 'detail', '', ( #243 ) ) ;
#50 = CONICAL_SURFACE ( 'NONE', #189, 1.199999999999996847, 0.7853981633974453924 ) ;
#51 = ADVANCED_FACE ( 'NONE', ( #65 ), #160, .T. ) ;
#52 = AXIS2_PLACEMENT_3D ( 'NONE', #119, #135, #24 ) ;
#53 = ORIENTED_EDGE ( 'NONE', *, *, #93, .F. ) ;
#54 = CC_DESIGN_PERSON_AND_ORGANIZATION_ASSIGNMENT ( #34, #147, ( #31 ) ) ;
#55 = APPROVAL_PERSON_ORGANIZATION ( #110, #213, #166 ) ;
#56 = FACE_OUTER_BOUND ( 'NONE', #96, .T. ) ;
#57 = ORIENTED_EDGE ( 'NONE', *, *, #129, .F. ) ;
#58 = DIRECTION ( 'NONE',  ( -3.491481338843133355E-15, 1.224646799147353207E-16, -1.000000000000000000 ) ) ;
#59 = ORIENTED_EDGE ( 'NONE', *, *, #93, .T. ) ;
#60 = DIRECTION ( 'NONE',  ( -3.491481338843133355E-15, 1.224646799147353207E-16, -1.000000000000000000 ) ) ;
#61 = EDGE_LOOP ( 'NONE', ( #215 ) ) ;
#62 = AXIS2_PLACEMENT_3D ( 'NONE', #154, #228, #212 ) ;
#63 = VERTEX_POINT ( 'NONE', #126 ) ;
#64 = CARTESIAN_POINT ( 'NONE',  ( 1.326762908760390423E-13, 8.998558695971053960E-33, 38.00000000000000000 ) ) ;
#65 = FACE_OUTER_BOUND ( 'NONE', #133, .T. ) ;
#66 = APPROVAL_DATE_TIME ( #113, #213 ) ;
#67 = PERSON_AND_ORGANIZATION ( #123, #37 ) ;
#68 = CC_DESIGN_APPROVAL ( #163, ( #25 ) ) ;
#69 = APPLICATION_PROTOCOL_DEFINITION ( 'international standard', 'config_control_design', 1994, #22 ) ;
#70 = PERSON_AND_ORGANIZATION_ROLE ( 'design_owner' ) ;
#71 = COORDINATED_UNIVERSAL_TIME_OFFSET ( 1, 0, .AHEAD. ) ;
#72 = PERSON_AND_ORGANIZATION ( #123, #37 ) ;
#73 = ADVANCED_FACE ( 'NONE', ( #28, #143 ), #80, .T. ) ;
#74 = AXIS2_PLACEMENT_3D ( 'NONE', #105, #106, #233 ) ;
#75 = AXIS2_PLACEMENT_3D ( 'NONE', #89, #161, #107 ) ;
#76 = EDGE_LOOP ( 'NONE', ( #53 ) ) ;
#77 = FACE_OUTER_BOUND ( 'NONE', #227, .T. ) ;
#78 = DIRECTION ( 'NONE',  ( -4.275831445896958607E-31, -1.000000000000000000, -1.224646799147353207E-16 ) ) ;
#79 = EDGE_LOOP ( 'NONE', ( #19 ) ) ;
#80 = CYLINDRICAL_SURFACE ( 'NONE', #139, 1.499999999999994671 ) ;
#81 = ORIENTED_EDGE ( 'NONE', *, *, #116, .F. ) ;
#82 = ADVANCED_FACE ( 'NONE', ( #125, #194 ), #23, .T. ) ;
#83 = FACE_OUTER_BOUND ( 'NONE', #61, .T. ) ;
#84 = DIRECTION ( 'NONE',  ( 4.275831445896958607E-31, 1.000000000000000000, 1.224646799147353207E-16 ) ) ;
#85 = PLANE ( 'NONE',  #178 ) ;
#86 = LOCAL_TIME ( 16, 36, 2.000000000000000000, #226 ) ;
#87 = PERSON_AND_ORGANIZATION_ROLE ( 'creator' ) ;
#88 = CC_DESIGN_PERSON_AND_ORGANIZATION_ASSIGNMENT ( #12, #87, ( #111 ) ) ;
#89 = CARTESIAN_POINT ( 'NONE',  ( 0.0000000000000000000, 0.0000000000000000000, 0.0000000000000000000 ) ) ;
#90 = CARTESIAN_POINT ( 'NONE',  ( 3.142333204958819231E-15, -0.1750000000000004607, 0.8999999999999998002 ) ) ;
#91 = APPROVAL_STATUS ( 'not_yet_approved' ) ;
#92 = DESIGN_CONTEXT ( 'detailed design', #43, 'design' ) ;
#93 = EDGE_CURVE ( 'NONE', #219, #219, #13, .T. ) ;
#94 = APPROVAL_PERSON_ORGANIZATION ( #72, #163, #36 ) ;
#95 = ADVANCED_FACE ( 'NONE', ( #77 ), #85, .F. ) ;
#96 = EDGE_LOOP ( 'NONE', ( #136 ) ) ;
#97 = ORIENTED_EDGE ( 'NONE', *, *, #21, .F. ) ;
#98 = CARTESIAN_POINT ( 'NONE',  ( -4.275811853558651348E-31, 1.499752910594655314E-32, -1.224641187678636516E-16 ) ) ;
#99 = LOCAL_TIME ( 16, 36, 2.000000000000000000, #148 ) ;
#100 = CARTESIAN_POINT ( 'NONE',  ( -1.571033956861020837E-30, 5.486130006053677770E-32, -4.499620087849493504E-16 ) ) ;
#101 = ADVANCED_BREP_SHAPE_REPRESENTATION ( '966057', ( #198, #115, #75 ), #29 ) ;
#102 = ORIENTED_EDGE ( 'NONE', *, *, #116, .T. ) ;
#103 = DIRECTION ( 'NONE',  ( -4.256963957985708889E-31, -1.000000000000000000, -1.219242935835427149E-16 ) ) ;
#104 = ORIENTED_EDGE ( 'NONE', *, *, #181, .T. ) ;
#105 = CARTESIAN_POINT ( 'NONE',  ( 3.142333204958818442E-15, 0.0000000000000000000, 0.8999999999999995781 ) ) ;
#106 = DIRECTION ( 'NONE',  ( 3.491481338843133355E-15, -1.219242935835426903E-16, 1.000000000000000000 ) ) ;
#107 = DIRECTION ( 'NONE',  ( 1.000000000000000000, 0.0000000000000000000, 0.0000000000000000000 ) ) ;
#108 = VERTEX_POINT ( 'NONE', #15 ) ;
#109 = CIRCLE ( 'NONE', #241, 0.1750000000000002387 ) ;
#110 = PERSON_AND_ORGANIZATION ( #123, #37 ) ;
#111 = PRODUCT_DEFINITION_FORMATION_WITH_SPECIFIED_SOURCE ( 'ANY', '', #243, .NOT_KNOWN. ) ;
#112 = PERSON_AND_ORGANIZATION ( #123, #37 ) ;
#113 = DATE_AND_TIME ( #223, #99 ) ;
#114 = DATE_AND_TIME ( #17, #86 ) ;
#115 = MANIFOLD_SOLID_BREP ( 'Corps-Déplacer/Copier1[2]', #222 ) ;
#116 = EDGE_CURVE ( 'NONE', #240, #240, #120, .T. ) ;
#117 = AXIS2_PLACEMENT_3D ( 'NONE', #64, #234, #84 ) ;
#118 = DIRECTION ( 'NONE',  ( 0.0000000000000000000, -1.000000000000000000, 0.0000000000000000000 ) ) ;
#119 = CARTESIAN_POINT ( 'NONE',  ( 1.316288464743861212E-13, -4.616918432785521081E-15, 37.69999999999999574 ) ) ;
#120 = CIRCLE ( 'NONE', #150, 0.1750000000000003497 ) ;
#121 = FACE_OUTER_BOUND ( 'NONE', #79, .T. ) ;
#122 = ORIENTED_EDGE ( 'NONE', *, *, #201, .T. ) ;
#123 = PERSON ( 'UNSPECIFIED', 'UNSPECIFIED', 'UNSPECIFIED', ('UNSPECIFIED'), ('UNSPECIFIED'), ('UNSPECIFIED') ) ;
#124 = DIRECTION ( 'NONE',  ( -4.275831445896958607E-31, -1.000000000000000000, -1.224646799147353207E-16 ) ) ;
#125 = FACE_BOUND ( 'NONE', #152, .T. ) ;
#126 = CARTESIAN_POINT ( 'NONE',  ( 2.132691880110570696E-14, -1.499999999999995337, 6.108272315203656433 ) ) ;
#127 = APPROVAL_STATUS ( 'not_yet_approved' ) ;
#128 = CARTESIAN_POINT ( 'NONE',  ( -1.645530826125770854E-30, -0.1750000000000002387, -4.712987601620694149E-16 ) ) ;
#129 = EDGE_CURVE ( 'NONE', #177, #177, #130, .T. ) ;
#130 = CIRCLE ( 'NONE', #62, 0.2431483474218595620 ) ;
#131 = CC_DESIGN_APPROVAL ( #213, ( #111 ) ) ;
#132 = CC_DESIGN_PERSON_AND_ORGANIZATION_ASSIGNMENT ( #207, #38, ( #25 ) ) ;
#133 = EDGE_LOOP ( 'NONE', ( #122 ) ) ;
#134 = PERSON_AND_ORGANIZATION_ROLE ( 'design_supplier' ) ;
#135 = DIRECTION ( 'NONE',  ( -3.491481338843133355E-15, 1.224646799147353207E-16, -1.000000000000000000 ) ) ;
#136 = ORIENTED_EDGE ( 'NONE', *, *, #181, .F. ) ;
#137 = DIRECTION ( 'NONE',  ( 0.0000000000000000000, 1.000000000000000000, 0.0000000000000000000 ) ) ;
#138 = DIRECTION ( 'NONE',  ( -3.491481338843133355E-15, 1.224646799147353207E-16, -1.000000000000000000 ) ) ;
#139 = AXIS2_PLACEMENT_3D ( 'NONE', #231, #60, #173 ) ;
#140 = EDGE_LOOP ( 'NONE', ( #81 ) ) ;
#141 = CC_DESIGN_DATE_AND_TIME_ASSIGNMENT ( #114, #183, ( #25 ) ) ;
#142 = PLANE ( 'NONE',  #117 ) ;
#143 = FACE_OUTER_BOUND ( 'NONE', #187, .T. ) ;
#144 =( NAMED_UNIT ( * ) SI_UNIT ( $, .STERADIAN. ) SOLID_ANGLE_UNIT ( ) );
#145 = CARTESIAN_POINT ( 'NONE',  ( 1.316288464743861212E-13, 1.499999999999992228, 37.69999999999999574 ) ) ;
#146 = ADVANCED_FACE ( 'NONE', ( #9 ), #218, .F. ) ;
#147 = PERSON_AND_ORGANIZATION_ROLE ( 'creator' ) ;
#148 = COORDINATED_UNIVERSAL_TIME_OFFSET ( 1, 0, .AHEAD. ) ;
#149 = APPROVAL_STATUS ( 'not_yet_approved' ) ;
#150 = AXIS2_PLACEMENT_3D ( 'NONE', #44, #174, #41 ) ;
#151 = APPROVAL_PERSON_ORGANIZATION ( #112, #192, #199 ) ;
#152 = EDGE_LOOP ( 'NONE', ( #153 ) ) ;
#153 = ORIENTED_EDGE ( 'NONE', *, *, #129, .T. ) ;
#154 = CARTESIAN_POINT ( 'NONE',  ( 4.949656937184067723E-15, -1.728445227053703850E-16, 1.417638090205026291 ) ) ;
#155 = DIRECTION ( 'NONE',  ( 3.491481338843133355E-15, -1.219242935835426903E-16, 1.000000000000000000 ) ) ;
#156 = EDGE_LOOP ( 'NONE', ( #232 ) ) ;
#157 = FACE_OUTER_BOUND ( 'NONE', #7, .T. ) ;
#158 = CARTESIAN_POINT ( 'NONE',  ( 3.142333204958819231E-15, -1.097318642251883818E-16, 0.8999999999999998002 ) ) ;
#159 = CARTESIAN_POINT ( 'NONE',  ( 2.132691880110570696E-14, -7.447467870471166397E-16, 6.108272315203656433 ) ) ;
#160 = PLANE ( 'NONE',  #3 ) ;
#161 = DIRECTION ( 'NONE',  ( 0.0000000000000000000, 0.0000000000000000000, 1.000000000000000000 ) ) ;
#162 = CIRCLE ( 'NONE', #52, 1.499999999999996669 ) ;
#163 = APPROVAL ( #149, 'UNSPECIFIED' ) ;
#164 =( LENGTH_UNIT ( ) NAMED_UNIT ( * ) SI_UNIT ( .MILLI., .METRE. ) );
#165 = APPLICATION_PROTOCOL_DEFINITION ( 'international standard', 'config_control_design', 1994, #43 ) ;
#166 = APPROVAL_ROLE ( '' ) ;
#167 = APPROVAL_DATE_TIME ( #16, #163 ) ;
#168 = LOCAL_TIME ( 16, 36, 2.000000000000000000, #48 ) ;
#169 = DIRECTION ( 'NONE',  ( 3.491481338843133355E-15, -1.219242935835426903E-16, 1.000000000000000000 ) ) ;
#170 = EDGE_LOOP ( 'NONE', ( #59 ) ) ;
#171 = DIRECTION ( 'NONE',  ( 3.491481338843133355E-15, -1.224646799147353207E-16, 1.000000000000000000 ) ) ;
#172 = DIRECTION ( 'NONE',  ( 3.491481338843133355E-15, -1.219242935835426903E-16, 1.000000000000000000 ) ) ;
#173 = DIRECTION ( 'NONE',  ( 4.275831445896958607E-31, 1.000000000000000000, 1.224646799147352961E-16 ) ) ;
#174 = DIRECTION ( 'NONE',  ( 3.491481338843133355E-15, -1.219242935835426903E-16, 1.000000000000000000 ) ) ;
#175 = MECHANICAL_CONTEXT ( 'NONE', #22, 'mechanical' ) ;
#176 = ADVANCED_FACE ( 'NONE', ( #56, #229 ), #50, .T. ) ;
#177 = VERTEX_POINT ( 'NONE', #242 ) ;
#178 = AXIS2_PLACEMENT_3D ( 'NONE', #98, #216, #235 ) ;
#179 = CIRCLE ( 'NONE', #1, 0.1750000000000003497 ) ;
#180 = DATE_AND_TIME ( #202, #168 ) ;
#181 = EDGE_CURVE ( 'NONE', #47, #47, #162, .T. ) ;
#182 = COORDINATED_UNIVERSAL_TIME_OFFSET ( 1, 0, .AHEAD. ) ;
#183 = DATE_TIME_ROLE ( 'classification_date' ) ;
#184 = LOCAL_TIME ( 16, 36, 2.000000000000000000, #182 ) ;
#185 = CLOSED_SHELL ( 'NONE', ( #73, #176, #5, #82, #39, #146 ) ) ;
#186 = SECURITY_CLASSIFICATION_LEVEL ( 'unclassified' ) ;
#187 = EDGE_LOOP ( 'NONE', ( #97 ) ) ;
#188 = DIRECTION ( 'NONE',  ( -3.491481338843133355E-15, 1.219242935835426903E-16, -1.000000000000000000 ) ) ;
#189 = AXIS2_PLACEMENT_3D ( 'NONE', #208, #58, #137 ) ;
#190 = CARTESIAN_POINT ( 'NONE',  ( 3.435730455134724107E-14, -1.199774445377854273E-15, 9.840323122772634434 ) ) ;
#191 = CYLINDRICAL_SURFACE ( 'NONE', #217, 0.1750000000000002942 ) ;
#192 = APPROVAL ( #127, 'UNSPECIFIED' ) ;
#193 = DIRECTION ( 'NONE',  ( 0.0000000000000000000, -1.000000000000000000, 0.0000000000000000000 ) ) ;
#194 = FACE_OUTER_BOUND ( 'NONE', #156, .T. ) ;
#195 = VERTEX_POINT ( 'NONE', #128 ) ;
#196 = ADVANCED_FACE ( 'NONE', ( #83, #121 ), #191, .T. ) ;
#197 = CALENDAR_DATE ( 2021, 16, 11 ) ;
#198 = MANIFOLD_SOLID_BREP ( 'Corps-Déplacer/Copier1[1]', #185 ) ;
#199 = APPROVAL_ROLE ( '' ) ;
#200 = AXIS2_PLACEMENT_3D ( 'NONE', #42, #45, #124 ) ;
#201 = EDGE_CURVE ( 'NONE', #108, #108, #179, .T. ) ;
#202 = CALENDAR_DATE ( 2021, 16, 11 ) ;
#203 = DATE_AND_TIME ( #197, #206 ) ;
#204 = CALENDAR_DATE ( 2021, 16, 11 ) ;
#205 = CIRCLE ( 'NONE', #10, 1.499999999999994671 ) ;
#206 = LOCAL_TIME ( 16, 36, 2.000000000000000000, #71 ) ;
#207 = PERSON_AND_ORGANIZATION ( #123, #37 ) ;
#208 = CARTESIAN_POINT ( 'NONE',  ( 1.326762908760390423E-13, -4.653657836759941941E-15, 38.00000000000000000 ) ) ;
#209 = EDGE_LOOP ( 'NONE', ( #104 ) ) ;
#210 = FACE_OUTER_BOUND ( 'NONE', #211, .T. ) ;
#211 = EDGE_LOOP ( 'NONE', ( #57 ) ) ;
#212 = DIRECTION ( 'NONE',  ( 0.0000000000000000000, -1.000000000000000000, 0.0000000000000000000 ) ) ;
#213 = APPROVAL ( #91, 'UNSPECIFIED' ) ;
#214 = CC_DESIGN_APPROVAL ( #192, ( #31 ) ) ;
#215 = ORIENTED_EDGE ( 'NONE', *, *, #46, .T. ) ;
#216 = DIRECTION ( 'NONE',  ( 3.491481338843133355E-15, -1.224646799147353207E-16, 1.000000000000000000 ) ) ;
#217 = AXIS2_PLACEMENT_3D ( 'NONE', #27, #26, #103 ) ;
#218 = PLANE ( 'NONE',  #200 ) ;
#219 = VERTEX_POINT ( 'NONE', #221 ) ;
#220 =( NAMED_UNIT ( * ) PLANE_ANGLE_UNIT ( ) SI_UNIT ( $, .RADIAN. ) );
#221 = CARTESIAN_POINT ( 'NONE',  ( 1.326762908760390423E-13, 1.199999999999992406, 38.00000000000000000 ) ) ;
#222 = CLOSED_SHELL ( 'NONE', ( #51, #196, #95 ) ) ;
#223 = CALENDAR_DATE ( 2021, 16, 11 ) ;
#224 = AXIS2_PLACEMENT_3D ( 'NONE', #190, #169, #193 ) ;
#225 = ORIENTED_EDGE ( 'NONE', *, *, #46, .F. ) ;
#226 = COORDINATED_UNIVERSAL_TIME_OFFSET ( 1, 0, .AHEAD. ) ;
#227 = EDGE_LOOP ( 'NONE', ( #225 ) ) ;
#228 = DIRECTION ( 'NONE',  ( 3.491481338843133355E-15, -1.219242935835426903E-16, 1.000000000000000000 ) ) ;
#229 = FACE_BOUND ( 'NONE', #170, .T. ) ;
#230 = FACE_OUTER_BOUND ( 'NONE', #76, .T. ) ;
#231 = CARTESIAN_POINT ( 'NONE',  ( 0.0000000000000000000, 0.0000000000000000000, 0.0000000000000000000 ) ) ;
#232 = ORIENTED_EDGE ( 'NONE', *, *, #21, .T. ) ;
#233 = DIRECTION ( 'NONE',  ( -4.336470827456546043E-31, -1.000000000000000000, -1.219242935835426903E-16 ) ) ;
#234 = DIRECTION ( 'NONE',  ( -3.491481338843133355E-15, 1.224646799147353207E-16, -1.000000000000000000 ) ) ;
#235 = DIRECTION ( 'NONE',  ( -4.275831445896958607E-31, -1.000000000000000000, -1.224646799147353207E-16 ) ) ;
#236 = CC_DESIGN_DATE_AND_TIME_ASSIGNMENT ( #180, #30, ( #31 ) ) ;
#237 = PERSON_AND_ORGANIZATION ( #123, #37 ) ;
#238 = PRODUCT_DEFINITION_SHAPE ( 'NONE', 'NONE',  #31 ) ;
#239 = TOROIDAL_SURFACE ( 'NONE', #74, 2.174999999999999378, 1.999999999999999556 ) ;
#240 = VERTEX_POINT ( 'NONE', #90 ) ;
#241 = AXIS2_PLACEMENT_3D ( 'NONE', #100, #155, #20 ) ;
#242 = CARTESIAN_POINT ( 'NONE',  ( 4.949656937184067723E-15, -0.2431483474218597285, 1.417638090205026291 ) ) ;
#243 = PRODUCT ( '966057', '966057', '', ( #175 ) ) ;
ENDSEC;
END-ISO-10303-21;
