ISO-10303-21;
HEADER;
FILE_DESCRIPTION (( 'STEP AP203' ),
    '1' );
FILE_NAME ('966008.step',
    '2023-09-27T05:43:28',
    ( '' ),
    ( '' ),
    'SwSTEP 2.0',
    'SolidWorks 2022',
    '' );
FILE_SCHEMA (( 'CONFIG_CONTROL_DESIGN' ));
ENDSEC;

DATA;
#1 = FACE_BOUND ( 'NONE', #226, .T. ) ;
#2 = ORIENTED_EDGE ( 'NONE', *, *, #26, .T. ) ;
#3 = FACE_OUTER_BOUND ( 'NONE', #118, .T. ) ;
#4 = APPROVAL ( #93, 'UNSPECIFIED' ) ;
#5 = CARTESIAN_POINT ( 'NONE',  ( 1.316288464743861212E-13, 0.000000000000000000, 37.69999999999999574 ) ) ;
#6 = AXIS2_PLACEMENT_3D ( 'NONE', #196, #90, #95 ) ;
#7 = DIRECTION ( 'NONE',  ( 1.000000000000000000, 0.000000000000000000, -4.148583837942778707E-15 ) ) ;
#8 = PERSON_AND_ORGANIZATION_ROLE ( 'creator' ) ;
#9 = CARTESIAN_POINT ( 'NONE',  ( 2.575533043694770811E-14, 0.000000000000000000, 7.376619817616288266 ) ) ;
#10 = CIRCLE ( 'NONE', #91, 1.199999999999993072 ) ;
#11 = PERSON_AND_ORGANIZATION ( #121, #193 ) ;
#12 = EDGE_LOOP ( 'NONE', ( #271 ) ) ;
#13 = EDGE_LOOP ( 'NONE', ( #85 ) ) ;
#14 = APPLICATION_PROTOCOL_DEFINITION ( 'international standard', 'config_control_design', 1994, #88 ) ;
#15 = EDGE_LOOP ( 'NONE', ( #44 ) ) ;
#16 = CC_DESIGN_SECURITY_CLASSIFICATION ( #236, ( #87 ) ) ;
#17 = LOCAL_TIME ( 7, 43, 28.00000000000000000, #42 ) ;
#18 = EDGE_LOOP ( 'NONE', ( #150 ) ) ;
#19 = APPROVAL_ROLE ( '' ) ;
#20 = ORIENTED_EDGE ( 'NONE', *, *, #197, .F. ) ;
#21 = CARTESIAN_POINT ( 'NONE',  ( 8.030407079339206717E-15, 0.000000000000000000, 2.299999999999999822 ) ) ;
#22 = CALENDAR_DATE ( 2023, 27, 9 ) ;
#23 = AXIS2_PLACEMENT_3D ( 'NONE', #35, #202, #98 ) ;
#24 = CARTESIAN_POINT ( 'NONE',  ( 0.000000000000000000, 0.000000000000000000, 0.000000000000000000 ) ) ;
#25 = ORIENTED_EDGE ( 'NONE', *, *, #108, .T. ) ;
#26 = EDGE_CURVE ( 'NONE', #57, #57, #143, .T. ) ;
#27 = DIRECTION ( 'NONE',  ( 1.000000000000000000, 0.000000000000000000, -5.782411586589390376E-15 ) ) ;
#28 = ORIENTED_EDGE ( 'NONE', *, *, #133, .F. ) ;
#29 = EDGE_LOOP ( 'NONE', ( #41 ) ) ;
#30 = DIRECTION ( 'NONE',  ( -1.000000000000000000, 0.000000000000000000, 3.491498521563489089E-15 ) ) ;
#31 = VERTEX_POINT ( 'NONE', #145 ) ;
#32 = DIRECTION ( 'NONE',  ( 1.000000000000000000, 0.000000000000000000, -3.491481338843133355E-15 ) ) ;
#33 = AXIS2_PLACEMENT_3D ( 'NONE', #94, #72, #241 ) ;
#34 =( GEOMETRIC_REPRESENTATION_CONTEXT ( 3 ) GLOBAL_UNCERTAINTY_ASSIGNED_CONTEXT ( ( #117 ) ) GLOBAL_UNIT_ASSIGNED_CONTEXT ( ( #228, #45, #248 ) ) REPRESENTATION_CONTEXT ( 'NONE', 'WORKASPACE' ) );
#35 = CARTESIAN_POINT ( 'NONE',  ( 8.934068945451840430E-15, 0.000000000000000000, 2.558819045102515677 ) ) ;
#36 = DATE_AND_TIME ( #263, #191 ) ;
#37 = CARTESIAN_POINT ( 'NONE',  ( 3.000882785495739869E-16, 0.000000000000000000, 0.08594869896941942367 ) ) ;
#38 = ADVANCED_FACE ( 'NONE', ( #216, #253 ), #137, .T. ) ;
#39 = CALENDAR_DATE ( 2023, 27, 9 ) ;
#40 = PERSON_AND_ORGANIZATION ( #121, #193 ) ;
#41 = ORIENTED_EDGE ( 'NONE', *, *, #26, .F. ) ;
#42 = COORDINATED_UNIVERSAL_TIME_OFFSET ( 1, 0, .AHEAD. ) ;
#43 = ADVANCED_FACE ( 'NONE', ( #213, #76 ), #227, .T. ) ;
#44 = ORIENTED_EDGE ( 'NONE', *, *, #158, .T. ) ;
#45 =( NAMED_UNIT ( * ) PLANE_ANGLE_UNIT ( ) SI_UNIT ( $, .RADIAN. ) );
#46 = DIRECTION ( 'NONE',  ( 1.000000000000000000, 0.000000000000000000, -3.491481338843133355E-15 ) ) ;
#47 = DATE_TIME_ROLE ( 'creation_date' ) ;
#48 = DIRECTION ( 'NONE',  ( 3.491481338843133355E-15, -0.000000000000000000, 1.000000000000000000 ) ) ;
#49 = CONICAL_SURFACE ( 'NONE', #203, 0.2949999999999999845, 1.047197551196600740 ) ;
#50 = APPROVAL_PERSON_ORGANIZATION ( #153, #4, #135 ) ;
#51 = DIRECTION ( 'NONE',  ( 3.491481338843133355E-15, -0.000000000000000000, 1.000000000000000000 ) ) ;
#52 = DESIGN_CONTEXT ( 'detailed design', #88, 'design' ) ;
#53 = DIRECTION ( 'NONE',  ( 3.491481338843133355E-15, -0.000000000000000000, 1.000000000000000000 ) ) ;
#54 = DIRECTION ( 'NONE',  ( 3.491481338843133355E-15, -0.000000000000000000, 1.000000000000000000 ) ) ;
#55 = VERTEX_POINT ( 'NONE', #128 ) ;
#56 = PERSON_AND_ORGANIZATION ( #121, #193 ) ;
#57 = VERTEX_POINT ( 'NONE', #176 ) ;
#58 = DATE_TIME_ROLE ( 'classification_date' ) ;
#59 = APPROVAL ( #65, 'UNSPECIFIED' ) ;
#60 = AXIS2_PLACEMENT_3D ( 'NONE', #5, #120, #201 ) ;
#61 = VERTEX_POINT ( 'NONE', #219 ) ;
#62 = APPROVAL_DATE_TIME ( #36, #170 ) ;
#63 = ADVANCED_FACE ( 'NONE', ( #116 ), #92, .F. ) ;
#64 = AXIS2_PLACEMENT_3D ( 'NONE', #257, #156, #275 ) ;
#65 = APPROVAL_STATUS ( 'not_yet_approved' ) ;
#66 = EDGE_LOOP ( 'NONE', ( #129 ) ) ;
#67 = AXIS2_PLACEMENT_3D ( 'NONE', #171, #69, #151 ) ;
#68 = PERSON_AND_ORGANIZATION ( #121, #193 ) ;
#69 = DIRECTION ( 'NONE',  ( 3.491481338843133355E-15, -0.000000000000000000, 1.000000000000000000 ) ) ;
#70 = DATE_AND_TIME ( #267, #17 ) ;
#71 = EDGE_CURVE ( 'NONE', #124, #124, #159, .T. ) ;
#72 = DIRECTION ( 'NONE',  ( 3.491481338843133355E-15, -0.000000000000000000, 1.000000000000000000 ) ) ;
#73 = APPLICATION_CONTEXT ( 'configuration controlled 3d designs of mechanical parts and assemblies' ) ;
#74 = AXIS2_PLACEMENT_3D ( 'NONE', #235, #48, #155 ) ;
#75 = CC_DESIGN_APPROVAL ( #59, ( #225 ) ) ;
#76 = FACE_BOUND ( 'NONE', #112, .T. ) ;
#77 = CC_DESIGN_DATE_AND_TIME_ASSIGNMENT ( #220, #58, ( #236 ) ) ;
#78 = CARTESIAN_POINT ( 'NONE',  ( 0.2950000000000001510, 0.000000000000000000, 0.06928203230275356561 ) ) ;
#79 = FACE_OUTER_BOUND ( 'NONE', #189, .T. ) ;
#80 = FACE_BOUND ( 'NONE', #255, .T. ) ;
#81 = DIRECTION ( 'NONE',  ( 3.491481338843133355E-15, -0.000000000000000000, 1.000000000000000000 ) ) ;
#82 = APPROVAL_STATUS ( 'not_yet_approved' ) ;
#83 = FACE_OUTER_BOUND ( 'NONE', #29, .T. ) ;
#84 = CC_DESIGN_PERSON_AND_ORGANIZATION_ASSIGNMENT ( #11, #182, ( #236 ) ) ;
#85 = ORIENTED_EDGE ( 'NONE', *, *, #133, .T. ) ;
#86 = CIRCLE ( 'NONE', #60, 1.499999999999996225 ) ;
#87 = PRODUCT_DEFINITION_FORMATION_WITH_SPECIFIED_SOURCE ( 'ANY', '', #173, .NOT_KNOWN. ) ;
#88 = APPLICATION_CONTEXT ( 'configuration controlled 3d designs of mechanical parts and assemblies' ) ;
#89 = MECHANICAL_CONTEXT ( 'NONE', #73, 'mechanical' ) ;
#90 = DIRECTION ( 'NONE',  ( 3.491481338843133355E-15, -0.000000000000000000, 1.000000000000000000 ) ) ;
#91 = AXIS2_PLACEMENT_3D ( 'NONE', #272, #232, #27 ) ;
#92 = PLANE ( 'NONE',  #64 ) ;
#93 = APPROVAL_STATUS ( 'not_yet_approved' ) ;
#94 = CARTESIAN_POINT ( 'NONE',  ( 5.419852014517688603E-16, 0.000000000000000000, 0.1552307312721740162 ) ) ;
#95 = DIRECTION ( 'NONE',  ( 1.000000000000000000, 0.000000000000000000, -2.478176394252584099E-15 ) ) ;
#96 = AXIS2_PLACEMENT_3D ( 'NONE', #119, #264, #32 ) ;
#97 = MANIFOLD_SOLID_BREP ( 'Corps-Déplacer/Copier1', #186 ) ;
#98 = DIRECTION ( 'NONE',  ( 1.000000000000000000, 0.000000000000000000, -4.148583837942778707E-15 ) ) ;
#99 = AXIS2_PLACEMENT_3D ( 'NONE', #9, #217, #245 ) ;
#100 = COORDINATED_UNIVERSAL_TIME_OFFSET ( 1, 0, .AHEAD. ) ;
#101 = FACE_OUTER_BOUND ( 'NONE', #231, .T. ) ;
#102 = CALENDAR_DATE ( 2023, 27, 9 ) ;
#103 = CARTESIAN_POINT ( 'NONE',  ( 0.000000000000000000, 0.000000000000000000, 0.000000000000000000 ) ) ;
#104 = CARTESIAN_POINT ( 'NONE',  ( 0.2090741737109385601, 0.000000000000000000, 2.558819045102514789 ) ) ;
#105 = SHAPE_DEFINITION_REPRESENTATION ( #242, #238 ) ;
#106 = EDGE_LOOP ( 'NONE', ( #198 ) ) ;
#107 = APPROVAL_PERSON_ORGANIZATION ( #68, #59, #19 ) ;
#108 = EDGE_CURVE ( 'NONE', #61, #61, #10, .T. ) ;
#109 = EDGE_LOOP ( 'NONE', ( #25 ) ) ;
#110 = FACE_OUTER_BOUND ( 'NONE', #130, .T. ) ;
#111 = ADVANCED_FACE ( 'NONE', ( #239, #3 ), #168, .F. ) ;
#112 = EDGE_LOOP ( 'NONE', ( #210 ) ) ;
#113 = DIRECTION ( 'NONE',  ( -1.000000000000000000, 0.000000000000000000, 4.625929269271497155E-15 ) ) ;
#114 = CIRCLE ( 'NONE', #222, 0.2949999999999999845 ) ;
#115 = COORDINATED_UNIVERSAL_TIME_OFFSET ( 1, 0, .AHEAD. ) ;
#116 = FACE_OUTER_BOUND ( 'NONE', #109, .T. ) ;
#117 = UNCERTAINTY_MEASURE_WITH_UNIT (LENGTH_MEASURE( 1.000000000000000082E-05 ), #228, 'distance_accuracy_value', 'NONE');
#118 = EDGE_LOOP ( 'NONE', ( #2 ) ) ;
#119 = CARTESIAN_POINT ( 'NONE',  ( 0.000000000000000000, 0.000000000000000000, 0.000000000000000000 ) ) ;
#120 = DIRECTION ( 'NONE',  ( 3.491481338843133355E-15, -0.000000000000000000, 1.000000000000000000 ) ) ;
#121 = PERSON ( 'UNSPECIFIED', 'UNSPECIFIED', 'UNSPECIFIED', ('UNSPECIFIED'), ('UNSPECIFIED'), ('UNSPECIFIED') ) ;
#122 = ADVANCED_FACE ( 'NONE', ( #1, #110 ), #212, .T. ) ;
#123 = CARTESIAN_POINT ( 'NONE',  ( 1.326762908760390423E-13, 0.000000000000000000, 38.00000000000000000 ) ) ;
#124 = VERTEX_POINT ( 'NONE', #260 ) ;
#125 = PERSON_AND_ORGANIZATION ( #121, #193 ) ;
#126 = CONICAL_SURFACE ( 'NONE', #23, 0.2090741737109295950, 0.2617993877991428575 ) ;
#127 = EDGE_LOOP ( 'NONE', ( #28 ) ) ;
#128 = CARTESIAN_POINT ( 'NONE',  ( 1.500000000000127676, 0.000000000000000000, 37.69999999999998863 ) ) ;
#129 = ORIENTED_EDGE ( 'NONE', *, *, #158, .F. ) ;
#130 = EDGE_LOOP ( 'NONE', ( #209 ) ) ;
#131 = ORIENTED_EDGE ( 'NONE', *, *, #71, .F. ) ;
#132 = DIRECTION ( 'NONE',  ( 1.000000000000000000, 0.000000000000000000, 0.000000000000000000 ) ) ;
#133 = EDGE_CURVE ( 'NONE', #246, #246, #192, .T. ) ;
#134 = DIRECTION ( 'NONE',  ( -3.491481338843133355E-15, 0.000000000000000000, -1.000000000000000000 ) ) ;
#135 = APPROVAL_ROLE ( '' ) ;
#136 = AXIS2_PLACEMENT_3D ( 'NONE', #123, #81, #163 ) ;
#137 = CYLINDRICAL_SURFACE ( 'NONE', #67, 1.499999999999998002 ) ;
#138 = DIRECTION ( 'NONE',  ( 1.000000000000000000, 0.000000000000000000, -3.491498521563489089E-15 ) ) ;
#139 = AXIS2_PLACEMENT_3D ( 'NONE', #24, #169, #194 ) ;
#140 = SECURITY_CLASSIFICATION_LEVEL ( 'unclassified' ) ;
#141 = FACE_BOUND ( 'NONE', #215, .T. ) ;
#142 = PLANE ( 'NONE',  #96 ) ;
#143 = CIRCLE ( 'NONE', #6, 0.1749999999999998224 ) ;
#144 = CC_DESIGN_APPROVAL ( #4, ( #87 ) ) ;
#145 = CARTESIAN_POINT ( 'NONE',  ( 0.2950000000000002620, 0.000000000000000000, 0.08594869896941839671 ) ) ;
#146 = COORDINATED_UNIVERSAL_TIME_OFFSET ( 1, 0, .AHEAD. ) ;
#147 = AXIS2_PLACEMENT_3D ( 'NONE', #154, #134, #113 ) ;
#148 = CC_DESIGN_DATE_AND_TIME_ASSIGNMENT ( #233, #47, ( #225 ) ) ;
#149 = VERTEX_POINT ( 'NONE', #273 ) ;
#150 = ORIENTED_EDGE ( 'NONE', *, *, #197, .T. ) ;
#151 = DIRECTION ( 'NONE',  ( 1.000000000000000000, 0.000000000000000000, -4.625929269271491633E-15 ) ) ;
#152 = CC_DESIGN_PERSON_AND_ORGANIZATION_ASSIGNMENT ( #252, #250, ( #173 ) ) ;
#153 = PERSON_AND_ORGANIZATION ( #121, #193 ) ;
#154 = CARTESIAN_POINT ( 'NONE',  ( 1.316288464743861212E-13, 0.000000000000000000, 37.69999999999999574 ) ) ;
#155 = DIRECTION ( 'NONE',  ( 1.000000000000000000, 0.000000000000000000, -3.491498521563489089E-15 ) ) ;
#156 = DIRECTION ( 'NONE',  ( -3.491481338843133355E-15, 0.000000000000000000, -1.000000000000000000 ) ) ;
#157 = VERTEX_POINT ( 'NONE', #243 ) ;
#158 = EDGE_CURVE ( 'NONE', #31, #31, #114, .T. ) ;
#159 = CIRCLE ( 'NONE', #33, 0.1750000000000000167 ) ;
#160 = FACE_OUTER_BOUND ( 'NONE', #15, .T. ) ;
#161 = DATE_AND_TIME ( #102, #258 ) ;
#162 = DIRECTION ( 'NONE',  ( -3.491481338843133355E-15, 0.000000000000000000, -1.000000000000000000 ) ) ;
#163 = DIRECTION ( 'NONE',  ( 1.000000000000000000, 0.000000000000000000, 0.000000000000000000 ) ) ;
#164 = AXIS2_PLACEMENT_3D ( 'NONE', #21, #53, #46 ) ;
#165 = CYLINDRICAL_SURFACE ( 'NONE', #214, 0.1749999999999999056 ) ;
#166 = AXIS2_PLACEMENT_3D ( 'NONE', #190, #270, #132 ) ;
#167 = ORIENTED_EDGE ( 'NONE', *, *, #108, .F. ) ;
#168 = TOROIDAL_SURFACE ( 'NONE', #164, 1.174999999999999822, 1.000000000000000000 ) ;
#169 = DIRECTION ( 'NONE',  ( 3.491481338843133355E-15, -0.000000000000000000, 1.000000000000000000 ) ) ;
#170 = APPROVAL ( #82, 'UNSPECIFIED' ) ;
#171 = CARTESIAN_POINT ( 'NONE',  ( 1.326762908760390423E-13, 0.000000000000000000, 38.00000000000000000 ) ) ;
#172 = CIRCLE ( 'NONE', #99, 1.500000000000000000 ) ;
#173 = PRODUCT ( '966008', '966008', '', ( #89 ) ) ;
#174 = LOCAL_TIME ( 7, 43, 28.00000000000000000, #146 ) ;
#175 = ADVANCED_FACE ( 'NONE', ( #79, #141 ), #126, .T. ) ;
#176 = CARTESIAN_POINT ( 'NONE',  ( 0.1750000000000078437, 0.000000000000000000, 2.300000000000002931 ) ) ;
#177 = DIRECTION ( 'NONE',  ( 3.491481338843133355E-15, -0.000000000000000000, 1.000000000000000000 ) ) ;
#178 = CIRCLE ( 'NONE', #256, 0.2090741737109295950 ) ;
#179 = APPROVAL_PERSON_ORGANIZATION ( #125, #170, #266 ) ;
#180 = PERSON_AND_ORGANIZATION_ROLE ( 'design_supplier' ) ;
#181 = FACE_OUTER_BOUND ( 'NONE', #13, .T. ) ;
#182 = PERSON_AND_ORGANIZATION_ROLE ( 'classification_officer' ) ;
#183 = FACE_OUTER_BOUND ( 'NONE', #188, .T. ) ;
#184 = EDGE_CURVE ( 'NONE', #224, #224, #178, .T. ) ;
#185 = DIRECTION ( 'NONE',  ( 1.000000000000000000, 0.000000000000000000, 0.000000000000000000 ) ) ;
#186 = CLOSED_SHELL ( 'NONE', ( #218, #43, #251, #187, #234, #122, #63, #111, #175, #38 ) ) ;
#187 = ADVANCED_FACE ( 'NONE', ( #80, #160 ), #49, .T. ) ;
#188 = EDGE_LOOP ( 'NONE', ( #230 ) ) ;
#189 = EDGE_LOOP ( 'NONE', ( #20 ) ) ;
#190 = CARTESIAN_POINT ( 'NONE',  ( 0.000000000000000000, 0.000000000000000000, 0.000000000000000000 ) ) ;
#191 = LOCAL_TIME ( 7, 43, 28.00000000000000000, #100 ) ;
#192 = CIRCLE ( 'NONE', #74, 0.2949999999999999845 ) ;
#193 = ORGANIZATION ( 'UNSPECIFIED', 'UNSPECIFIED', '' ) ;
#194 = DIRECTION ( 'NONE',  ( 1.000000000000000000, 0.000000000000000000, -3.491481338843133750E-15 ) ) ;
#195 = COORDINATED_UNIVERSAL_TIME_OFFSET ( 1, 0, .AHEAD. ) ;
#196 = CARTESIAN_POINT ( 'NONE',  ( 8.030407079339217761E-15, 0.000000000000000000, 2.300000000000003375 ) ) ;
#197 = EDGE_CURVE ( 'NONE', #157, #157, #172, .T. ) ;
#198 = ORIENTED_EDGE ( 'NONE', *, *, #184, .F. ) ;
#199 = CARTESIAN_POINT ( 'NONE',  ( 1.326762908760390423E-13, 0.000000000000000000, 38.00000000000000000 ) ) ;
#200 = EDGE_CURVE ( 'NONE', #55, #55, #86, .T. ) ;
#201 = DIRECTION ( 'NONE',  ( 1.000000000000000000, 0.000000000000000000, -4.625929269271497155E-15 ) ) ;
#202 = DIRECTION ( 'NONE',  ( 3.491481338843133355E-15, -0.000000000000000000, 1.000000000000000000 ) ) ;
#203 = AXIS2_PLACEMENT_3D ( 'NONE', #37, #162, #30 ) ;
#204 = AXIS2_PLACEMENT_3D ( 'NONE', #103, #54, #261 ) ;
#205 = CARTESIAN_POINT ( 'NONE',  ( 8.934068945451840430E-15, 0.000000000000000000, 2.558819045102515677 ) ) ;
#206 = CC_DESIGN_PERSON_AND_ORGANIZATION_ASSIGNMENT ( #274, #254, ( #225 ) ) ;
#207 = APPROVAL_DATE_TIME ( #161, #4 ) ;
#208 = ORIENTED_EDGE ( 'NONE', *, *, #71, .T. ) ;
#209 = ORIENTED_EDGE ( 'NONE', *, *, #200, .T. ) ;
#210 = ORIENTED_EDGE ( 'NONE', *, *, #259, .T. ) ;
#211 = APPROVAL_DATE_TIME ( #70, #59 ) ;
#212 = CONICAL_SURFACE ( 'NONE', #147, 1.499999999999996225, 0.7853981633974504994 ) ;
#213 = FACE_OUTER_BOUND ( 'NONE', #127, .T. ) ;
#214 = AXIS2_PLACEMENT_3D ( 'NONE', #199, #262, #185 ) ;
#215 = EDGE_LOOP ( 'NONE', ( #268 ) ) ;
#216 = FACE_OUTER_BOUND ( 'NONE', #12, .T. ) ;
#217 = DIRECTION ( 'NONE',  ( 3.491481338843133355E-15, -0.000000000000000000, 1.000000000000000000 ) ) ;
#218 = ADVANCED_FACE ( 'NONE', ( #183 ), #142, .F. ) ;
#219 = CARTESIAN_POINT ( 'NONE',  ( 1.200000000000125855, 0.000000000000000000, 37.99999999999999289 ) ) ;
#220 = DATE_AND_TIME ( #39, #174 ) ;
#221 = CYLINDRICAL_SURFACE ( 'NONE', #136, 0.2949999999999999845 ) ;
#222 = AXIS2_PLACEMENT_3D ( 'NONE', #237, #51, #138 ) ;
#223 = LOCAL_TIME ( 7, 43, 28.00000000000000000, #195 ) ;
#224 = VERTEX_POINT ( 'NONE', #104 ) ;
#225 = PRODUCT_DEFINITION ( 'UNKNOWN', '', #87, #52 ) ;
#226 = EDGE_LOOP ( 'NONE', ( #167 ) ) ;
#227 = CONICAL_SURFACE ( 'NONE', #139, 0.1749999999999999611, 1.047197551196600740 ) ;
#228 =( LENGTH_UNIT ( ) NAMED_UNIT ( * ) SI_UNIT ( .MILLI., .METRE. ) );
#229 = APPLICATION_PROTOCOL_DEFINITION ( 'international standard', 'config_control_design', 1994, #73 ) ;
#230 = ORIENTED_EDGE ( 'NONE', *, *, #259, .F. ) ;
#231 = EDGE_LOOP ( 'NONE', ( #208 ) ) ;
#232 = DIRECTION ( 'NONE',  ( 3.491481338843133355E-15, -0.000000000000000000, 1.000000000000000000 ) ) ;
#233 = DATE_AND_TIME ( #22, #223 ) ;
#234 = ADVANCED_FACE ( 'NONE', ( #83, #101 ), #165, .T. ) ;
#235 = CARTESIAN_POINT ( 'NONE',  ( 2.418969229021948241E-16, 0.000000000000000000, 0.06928203230275459257 ) ) ;
#236 = SECURITY_CLASSIFICATION ( '', '', #140 ) ;
#237 = CARTESIAN_POINT ( 'NONE',  ( 3.000882785495739869E-16, 0.000000000000000000, 0.08594869896941942367 ) ) ;
#238 = ADVANCED_BREP_SHAPE_REPRESENTATION ( '966008', ( #97, #166 ), #34 ) ;
#239 = FACE_OUTER_BOUND ( 'NONE', #106, .T. ) ;
#240 = CC_DESIGN_APPROVAL ( #170, ( #236 ) ) ;
#241 = DIRECTION ( 'NONE',  ( 1.000000000000000000, 0.000000000000000000, -3.562378566738085772E-15 ) ) ;
#242 = PRODUCT_DEFINITION_SHAPE ( 'NONE', 'NONE',  #225 ) ;
#243 = CARTESIAN_POINT ( 'NONE',  ( 1.500000000000025757, 0.000000000000000000, 7.376619817616282937 ) ) ;
#244 = FACE_OUTER_BOUND ( 'NONE', #66, .T. ) ;
#245 = DIRECTION ( 'NONE',  ( 1.000000000000000000, 0.000000000000000000, -3.469446951953614189E-15 ) ) ;
#246 = VERTEX_POINT ( 'NONE', #78 ) ;
#247 = CC_DESIGN_PERSON_AND_ORGANIZATION_ASSIGNMENT ( #56, #180, ( #87 ) ) ;
#248 =( NAMED_UNIT ( * ) SI_UNIT ( $, .STERADIAN. ) SOLID_ANGLE_UNIT ( ) );
#249 = CIRCLE ( 'NONE', #204, 0.1749999999999999611 ) ;
#250 = PERSON_AND_ORGANIZATION_ROLE ( 'design_owner' ) ;
#251 = ADVANCED_FACE ( 'NONE', ( #244, #181 ), #221, .T. ) ;
#252 = PERSON_AND_ORGANIZATION ( #121, #193 ) ;
#253 = FACE_OUTER_BOUND ( 'NONE', #18, .T. ) ;
#254 = PERSON_AND_ORGANIZATION_ROLE ( 'creator' ) ;
#255 = EDGE_LOOP ( 'NONE', ( #131 ) ) ;
#256 = AXIS2_PLACEMENT_3D ( 'NONE', #205, #177, #7 ) ;
#257 = CARTESIAN_POINT ( 'NONE',  ( 1.326762908760390423E-13, 1.199999999999993072, 38.00000000000000000 ) ) ;
#258 = LOCAL_TIME ( 7, 43, 28.00000000000000000, #115 ) ;
#259 = EDGE_CURVE ( 'NONE', #149, #149, #249, .T. ) ;
#260 = CARTESIAN_POINT ( 'NONE',  ( 0.1750000000000005718, 0.000000000000000000, 0.1552307312721734056 ) ) ;
#261 = DIRECTION ( 'NONE',  ( 1.000000000000000000, 0.000000000000000000, -3.491481338843133750E-15 ) ) ;
#262 = DIRECTION ( 'NONE',  ( 3.491481338843133355E-15, -0.000000000000000000, 1.000000000000000000 ) ) ;
#263 = CALENDAR_DATE ( 2023, 27, 9 ) ;
#264 = DIRECTION ( 'NONE',  ( 3.491481338843133355E-15, -0.000000000000000000, 1.000000000000000000 ) ) ;
#265 = PRODUCT_RELATED_PRODUCT_CATEGORY ( 'detail', '', ( #173 ) ) ;
#266 = APPROVAL_ROLE ( '' ) ;
#267 = CALENDAR_DATE ( 2023, 27, 9 ) ;
#268 = ORIENTED_EDGE ( 'NONE', *, *, #184, .T. ) ;
#269 = CC_DESIGN_PERSON_AND_ORGANIZATION_ASSIGNMENT ( #40, #8, ( #87 ) ) ;
#270 = DIRECTION ( 'NONE',  ( 0.000000000000000000, 0.000000000000000000, 1.000000000000000000 ) ) ;
#271 = ORIENTED_EDGE ( 'NONE', *, *, #200, .F. ) ;
#272 = CARTESIAN_POINT ( 'NONE',  ( 1.326762908760390423E-13, 0.000000000000000000, 38.00000000000000000 ) ) ;
#273 = CARTESIAN_POINT ( 'NONE',  ( 0.1749999999999999611, 0.000000000000000000, -6.110092342975482386E-16 ) ) ;
#274 = PERSON_AND_ORGANIZATION ( #121, #193 ) ;
#275 = DIRECTION ( 'NONE',  ( -1.000000000000000000, 0.000000000000000000, 3.491481338843133355E-15 ) ) ;
ENDSEC;
END-ISO-10303-21;
