ISO-10303-21;
HEADER;
FILE_DESCRIPTION (( 'STEP AP203' ),
    '1' );
FILE_NAME ('966007.step',
    '2023-09-27T05:43:27',
    ( '' ),
    ( '' ),
    'SwSTEP 2.0',
    'SolidWorks 2022',
    '' );
FILE_SCHEMA (( 'CONFIG_CONTROL_DESIGN' ));
ENDSEC;

DATA;
#1 = AXIS2_PLACEMENT_3D ( 'NONE', #116, #151, #179 ) ;
#2 = DIRECTION ( 'NONE',  ( 1.000000000000000000, 0.000000000000000000, -3.479156225140051412E-15 ) ) ;
#3 = ADVANCED_BREP_SHAPE_REPRESENTATION ( '966007', ( #264, #47 ), #229 ) ;
#4 = DIRECTION ( 'NONE',  ( 1.000000000000000000, 0.000000000000000000, -3.491481338843133355E-15 ) ) ;
#5 = AXIS2_PLACEMENT_3D ( 'NONE', #78, #261, #30 ) ;
#6 = DIRECTION ( 'NONE',  ( 3.491481338843133355E-15, -0.000000000000000000, 1.000000000000000000 ) ) ;
#7 = DIRECTION ( 'NONE',  ( -1.000000000000000000, 0.000000000000000000, 3.491481338843133355E-15 ) ) ;
#8 = EDGE_LOOP ( 'NONE', ( #132 ) ) ;
#9 = CYLINDRICAL_SURFACE ( 'NONE', #260, 1.499999999999998002 ) ;
#10 = ORIENTED_EDGE ( 'NONE', *, *, #175, .T. ) ;
#11 = CARTESIAN_POINT ( 'NONE',  ( 0.000000000000000000, 0.000000000000000000, 0.000000000000000000 ) ) ;
#12 = AXIS2_PLACEMENT_3D ( 'NONE', #150, #133, #134 ) ;
#13 = ORIENTED_EDGE ( 'NONE', *, *, #25, .T. ) ;
#14 = DIRECTION ( 'NONE',  ( 0.000000000000000000, 0.000000000000000000, 1.000000000000000000 ) ) ;
#15 = APPLICATION_PROTOCOL_DEFINITION ( 'international standard', 'config_control_design', 1994, #149 ) ;
#16 = DIRECTION ( 'NONE',  ( -1.000000000000000000, 0.000000000000000000, 3.479156225140051412E-15 ) ) ;
#17 = CALENDAR_DATE ( 2023, 27, 9 ) ;
#18 = APPROVAL ( #126, 'UNSPECIFIED' ) ;
#19 = APPROVAL_DATE_TIME ( #64, #99 ) ;
#20 = CC_DESIGN_APPROVAL ( #228, ( #74 ) ) ;
#21 = UNCERTAINTY_MEASURE_WITH_UNIT (LENGTH_MEASURE( 1.000000000000000082E-05 ), #208, 'distance_accuracy_value', 'NONE');
#22 = EDGE_CURVE ( 'NONE', #75, #75, #194, .T. ) ;
#23 = LOCAL_TIME ( 7, 43, 27.00000000000000000, #275 ) ;
#24 = PERSON ( 'UNSPECIFIED', 'UNSPECIFIED', 'UNSPECIFIED', ('UNSPECIFIED'), ('UNSPECIFIED'), ('UNSPECIFIED') ) ;
#25 = EDGE_CURVE ( 'NONE', #245, #245, #211, .T. ) ;
#26 = DIRECTION ( 'NONE',  ( 1.000000000000000000, 0.000000000000000000, -3.423796334164750927E-15 ) ) ;
#27 = DIRECTION ( 'NONE',  ( 1.000000000000000000, 0.000000000000000000, 0.000000000000000000 ) ) ;
#28 = CIRCLE ( 'NONE', #167, 0.2240741737109298581 ) ;
#29 = CARTESIAN_POINT ( 'NONE',  ( 1.326762908760390423E-13, 1.199999999999993072, 38.00000000000000000 ) ) ;
#30 = DIRECTION ( 'NONE',  ( 1.000000000000000000, 0.000000000000000000, -3.491481338843133750E-15 ) ) ;
#31 = EDGE_LOOP ( 'NONE', ( #224 ) ) ;
#32 = ORIENTED_EDGE ( 'NONE', *, *, #175, .F. ) ;
#33 = EDGE_CURVE ( 'NONE', #202, #202, #184, .T. ) ;
#34 = FACE_BOUND ( 'NONE', #270, .T. ) ;
#35 = CARTESIAN_POINT ( 'NONE',  ( 9.632365213220462367E-15, 0.000000000000000000, 2.758819045102514522 ) ) ;
#36 = EDGE_LOOP ( 'NONE', ( #10 ) ) ;
#37 = AXIS2_PLACEMENT_3D ( 'NONE', #221, #6, #51 ) ;
#38 = SECURITY_CLASSIFICATION_LEVEL ( 'unclassified' ) ;
#39 = EDGE_LOOP ( 'NONE', ( #13 ) ) ;
#40 = APPROVAL_ROLE ( '' ) ;
#41 = LOCAL_TIME ( 7, 43, 27.00000000000000000, #250 ) ;
#42 = APPLICATION_PROTOCOL_DEFINITION ( 'international standard', 'config_control_design', 1994, #182 ) ;
#43 = PERSON_AND_ORGANIZATION ( #24, #113 ) ;
#44 = APPROVAL_ROLE ( '' ) ;
#45 = SHAPE_DEFINITION_REPRESENTATION ( #262, #3 ) ;
#46 = CARTESIAN_POINT ( 'NONE',  ( 0.000000000000000000, 0.000000000000000000, 0.000000000000000000 ) ) ;
#47 = AXIS2_PLACEMENT_3D ( 'NONE', #273, #14, #143 ) ;
#48 = ADVANCED_FACE ( 'NONE', ( #108, #88 ), #171, .T. ) ;
#49 = EDGE_LOOP ( 'NONE', ( #136 ) ) ;
#50 = DIRECTION ( 'NONE',  ( -3.491481338843133355E-15, 0.000000000000000000, -1.000000000000000000 ) ) ;
#51 = DIRECTION ( 'NONE',  ( 1.000000000000000000, 0.000000000000000000, -4.625929269271497155E-15 ) ) ;
#52 = CARTESIAN_POINT ( 'NONE',  ( 8.728703347107841277E-15, 0.000000000000000000, 2.500000000000002220 ) ) ;
#53 = FACE_OUTER_BOUND ( 'NONE', #31, .T. ) ;
#54 = ORIENTED_EDGE ( 'NONE', *, *, #22, .T. ) ;
#55 = CIRCLE ( 'NONE', #84, 1.199999999999993072 ) ;
#56 = CARTESIAN_POINT ( 'NONE',  ( 9.632365213220462367E-15, 0.000000000000000000, 2.758819045102514522 ) ) ;
#57 = CARTESIAN_POINT ( 'NONE',  ( 1.326762908760390423E-13, 0.000000000000000000, 38.00000000000000000 ) ) ;
#58 = CARTESIAN_POINT ( 'NONE',  ( 1.500000000000127676, 0.000000000000000000, 37.69999999999998863 ) ) ;
#59 = ORIENTED_EDGE ( 'NONE', *, *, #66, .T. ) ;
#60 = PERSON_AND_ORGANIZATION_ROLE ( 'creator' ) ;
#61 = AXIS2_PLACEMENT_3D ( 'NONE', #219, #68, #238 ) ;
#62 = VERTEX_POINT ( 'NONE', #203 ) ;
#63 = DATE_AND_TIME ( #120, #41 ) ;
#64 = DATE_AND_TIME ( #210, #119 ) ;
#65 = FACE_OUTER_BOUND ( 'NONE', #77, .T. ) ;
#66 = EDGE_CURVE ( 'NONE', #196, #196, #28, .T. ) ;
#67 = ORIENTED_EDGE ( 'NONE', *, *, #252, .F. ) ;
#68 = DIRECTION ( 'NONE',  ( 3.491481338843133355E-15, -0.000000000000000000, 1.000000000000000000 ) ) ;
#69 = DIRECTION ( 'NONE',  ( 3.491481338843133355E-15, -0.000000000000000000, 1.000000000000000000 ) ) ;
#70 = EDGE_CURVE ( 'NONE', #123, #123, #55, .T. ) ;
#71 = EDGE_LOOP ( 'NONE', ( #191 ) ) ;
#72 = ORIENTED_EDGE ( 'NONE', *, *, #25, .F. ) ;
#73 = AXIS2_PLACEMENT_3D ( 'NONE', #234, #91, #2 ) ;
#74 = PRODUCT_DEFINITION_FORMATION_WITH_SPECIFIED_SOURCE ( 'ANY', '', #153, .NOT_KNOWN. ) ;
#75 = VERTEX_POINT ( 'NONE', #159 ) ;
#76 = ADVANCED_FACE ( 'NONE', ( #239 ), #217, .F. ) ;
#77 = EDGE_LOOP ( 'NONE', ( #155 ) ) ;
#78 = CARTESIAN_POINT ( 'NONE',  ( 0.000000000000000000, 0.000000000000000000, 0.000000000000000000 ) ) ;
#79 = APPROVAL_PERSON_ORGANIZATION ( #269, #228, #162 ) ;
#80 = APPROVAL_STATUS ( 'not_yet_approved' ) ;
#81 = AXIS2_PLACEMENT_3D ( 'NONE', #46, #97, #4 ) ;
#82 = DATE_TIME_ROLE ( 'creation_date' ) ;
#83 = CALENDAR_DATE ( 2023, 27, 9 ) ;
#84 = AXIS2_PLACEMENT_3D ( 'NONE', #173, #69, #256 ) ;
#85 = CIRCLE ( 'NONE', #235, 0.1899999999999998357 ) ;
#86 = FACE_BOUND ( 'NONE', #139, .T. ) ;
#87 = DIRECTION ( 'NONE',  ( 3.491481338843133355E-15, -0.000000000000000000, 1.000000000000000000 ) ) ;
#88 = FACE_OUTER_BOUND ( 'NONE', #237, .T. ) ;
#89 = DIRECTION ( 'NONE',  ( -1.000000000000000000, 0.000000000000000000, 4.625929269271497155E-15 ) ) ;
#90 = APPROVAL_PERSON_ORGANIZATION ( #101, #18, #40 ) ;
#91 = DIRECTION ( 'NONE',  ( 3.491481338843133355E-15, -0.000000000000000000, 1.000000000000000000 ) ) ;
#92 = CC_DESIGN_DATE_AND_TIME_ASSIGNMENT ( #186, #82, ( #142 ) ) ;
#93 = DIRECTION ( 'NONE',  ( 3.491481338843133355E-15, -0.000000000000000000, 1.000000000000000000 ) ) ;
#94 = FACE_OUTER_BOUND ( 'NONE', #227, .T. ) ;
#95 = FACE_OUTER_BOUND ( 'NONE', #129, .T. ) ;
#96 = EDGE_LOOP ( 'NONE', ( #32 ) ) ;
#97 = DIRECTION ( 'NONE',  ( 3.491481338843133355E-15, -0.000000000000000000, 1.000000000000000000 ) ) ;
#98 = TOROIDAL_SURFACE ( 'NONE', #128, 1.189999999999999947, 1.000000000000000000 ) ;
#99 = APPROVAL ( #105, 'UNSPECIFIED' ) ;
#100 = COORDINATED_UNIVERSAL_TIME_OFFSET ( 1, 0, .AHEAD. ) ;
#101 = PERSON_AND_ORGANIZATION ( #24, #113 ) ;
#102 = APPROVAL_DATE_TIME ( #63, #228 ) ;
#103 = CC_DESIGN_PERSON_AND_ORGANIZATION_ASSIGNMENT ( #165, #60, ( #74 ) ) ;
#104 = CONICAL_SURFACE ( 'NONE', #124, 0.3350000000000000200, 1.047197551196590304 ) ;
#105 = APPROVAL_STATUS ( 'not_yet_approved' ) ;
#106 = SECURITY_CLASSIFICATION ( '', '', #38 ) ;
#107 = ORIENTED_EDGE ( 'NONE', *, *, #255, .F. ) ;
#108 = FACE_OUTER_BOUND ( 'NONE', #198, .T. ) ;
#109 = DIRECTION ( 'NONE',  ( -3.491481338843133355E-15, 0.000000000000000000, -1.000000000000000000 ) ) ;
#110 = ADVANCED_FACE ( 'NONE', ( #65, #94 ), #98, .F. ) ;
#111 = ORIENTED_EDGE ( 'NONE', *, *, #207, .F. ) ;
#112 = DIRECTION ( 'NONE',  ( 3.491481338843133355E-15, -0.000000000000000000, 1.000000000000000000 ) ) ;
#113 = ORGANIZATION ( 'UNSPECIFIED', 'UNSPECIFIED', '' ) ;
#114 = DIRECTION ( 'NONE',  ( -3.491481338843133355E-15, 0.000000000000000000, -1.000000000000000000 ) ) ;
#115 = CARTESIAN_POINT ( 'NONE',  ( 0.2240741737109394893, 0.000000000000000000, 2.758819045102513634 ) ) ;
#116 = CARTESIAN_POINT ( 'NONE',  ( 2.625817091846270366E-14, 0.000000000000000000, 7.520639055502750914 ) ) ;
#117 = DIRECTION ( 'NONE',  ( 1.000000000000000000, 0.000000000000000000, -4.565061778886338777E-15 ) ) ;
#118 = CC_DESIGN_PERSON_AND_ORGANIZATION_ASSIGNMENT ( #43, #268, ( #153 ) ) ;
#119 = LOCAL_TIME ( 7, 43, 27.00000000000000000, #127 ) ;
#120 = CALENDAR_DATE ( 2023, 27, 9 ) ;
#121 = CARTESIAN_POINT ( 'NONE',  ( 1.200000000000125855, 0.000000000000000000, 37.99999999999999289 ) ) ;
#122 = ADVANCED_FACE ( 'NONE', ( #86, #236 ), #104, .T. ) ;
#123 = VERTEX_POINT ( 'NONE', #121 ) ;
#124 = AXIS2_PLACEMENT_3D ( 'NONE', #254, #50, #16 ) ;
#125 = CARTESIAN_POINT ( 'NONE',  ( 1.500000000000026201, 0.000000000000000000, 7.520639055502745585 ) ) ;
#126 = APPROVAL_STATUS ( 'not_yet_approved' ) ;
#127 = COORDINATED_UNIVERSAL_TIME_OFFSET ( 1, 0, .AHEAD. ) ;
#128 = AXIS2_PLACEMENT_3D ( 'NONE', #169, #204, #185 ) ;
#129 = EDGE_LOOP ( 'NONE', ( #241 ) ) ;
#130 = DIRECTION ( 'NONE',  ( 3.491481338843133355E-15, -0.000000000000000000, 1.000000000000000000 ) ) ;
#131 = CC_DESIGN_PERSON_AND_ORGANIZATION_ASSIGNMENT ( #271, #188, ( #142 ) ) ;
#132 = ORIENTED_EDGE ( 'NONE', *, *, #255, .T. ) ;
#133 = DIRECTION ( 'NONE',  ( 3.491481338843133355E-15, -0.000000000000000000, 1.000000000000000000 ) ) ;
#134 = DIRECTION ( 'NONE',  ( 1.000000000000000000, 0.000000000000000000, 0.000000000000000000 ) ) ;
#135 = DIRECTION ( 'NONE',  ( 1.000000000000000000, 0.000000000000000000, -3.870868845007350543E-15 ) ) ;
#136 = ORIENTED_EDGE ( 'NONE', *, *, #22, .F. ) ;
#137 = FACE_OUTER_BOUND ( 'NONE', #257, .T. ) ;
#138 = FACE_BOUND ( 'NONE', #263, .T. ) ;
#139 = EDGE_LOOP ( 'NONE', ( #213 ) ) ;
#140 = PERSON_AND_ORGANIZATION ( #24, #113 ) ;
#141 = VERTEX_POINT ( 'NONE', #125 ) ;
#142 = PRODUCT_DEFINITION ( 'UNKNOWN', '', #74, #192 ) ;
#143 = DIRECTION ( 'NONE',  ( 1.000000000000000000, 0.000000000000000000, 0.000000000000000000 ) ) ;
#144 =( NAMED_UNIT ( * ) SI_UNIT ( $, .STERADIAN. ) SOLID_ANGLE_UNIT ( ) );
#145 = CONICAL_SURFACE ( 'NONE', #5, 0.1899999999999999467, 1.047197551196590526 ) ;
#146 = VERTEX_POINT ( 'NONE', #183 ) ;
#147 = DATE_AND_TIME ( #83, #23 ) ;
#148 = ADVANCED_FACE ( 'NONE', ( #272 ), #232, .F. ) ;
#149 = APPLICATION_CONTEXT ( 'configuration controlled 3d designs of mechanical parts and assemblies' ) ;
#150 = CARTESIAN_POINT ( 'NONE',  ( 1.326762908760390423E-13, 0.000000000000000000, 38.00000000000000000 ) ) ;
#151 = DIRECTION ( 'NONE',  ( 3.491481338843133355E-15, -0.000000000000000000, 1.000000000000000000 ) ) ;
#152 = ORIENTED_EDGE ( 'NONE', *, *, #70, .F. ) ;
#153 = PRODUCT ( '966007', '966007', '', ( #181 ) ) ;
#154 = FACE_OUTER_BOUND ( 'NONE', #39, .T. ) ;
#155 = ORIENTED_EDGE ( 'NONE', *, *, #66, .F. ) ;
#156 = CLOSED_SHELL ( 'NONE', ( #148, #267, #48, #122, #166, #164, #76, #110, #216, #180 ) ) ;
#157 = CARTESIAN_POINT ( 'NONE',  ( 1.316288464743861212E-13, 0.000000000000000000, 37.69999999999999574 ) ) ;
#158 = CC_DESIGN_DATE_AND_TIME_ASSIGNMENT ( #147, #231, ( #106 ) ) ;
#159 = CARTESIAN_POINT ( 'NONE',  ( 0.3350000000000002975, 0.000000000000000000, 0.08371578903249599080 ) ) ;
#160 =( NAMED_UNIT ( * ) PLANE_ANGLE_UNIT ( ) SI_UNIT ( $, .RADIAN. ) );
#161 = AXIS2_PLACEMENT_3D ( 'NONE', #35, #223, #135 ) ;
#162 = APPROVAL_ROLE ( '' ) ;
#163 = APPROVAL_DATE_TIME ( #209, #18 ) ;
#164 = ADVANCED_FACE ( 'NONE', ( #34, #154 ), #258, .T. ) ;
#165 = PERSON_AND_ORGANIZATION ( #24, #113 ) ;
#166 = ADVANCED_FACE ( 'NONE', ( #243, #95 ), #172, .T. ) ;
#167 = AXIS2_PLACEMENT_3D ( 'NONE', #56, #193, #214 ) ;
#168 = CIRCLE ( 'NONE', #251, 0.1899999999999999467 ) ;
#169 = CARTESIAN_POINT ( 'NONE',  ( 8.728703347107833388E-15, 0.000000000000000000, 2.500000000000000000 ) ) ;
#170 = CC_DESIGN_PERSON_AND_ORGANIZATION_ASSIGNMENT ( #140, #225, ( #74 ) ) ;
#171 = CYLINDRICAL_SURFACE ( 'NONE', #12, 0.3350000000000000200 ) ;
#172 = CYLINDRICAL_SURFACE ( 'NONE', #247, 0.1899999999999999190 ) ;
#173 = CARTESIAN_POINT ( 'NONE',  ( 1.326762908760390423E-13, 0.000000000000000000, 38.00000000000000000 ) ) ;
#174 = CARTESIAN_POINT ( 'NONE',  ( 1.326762908760390423E-13, 0.000000000000000000, 38.00000000000000000 ) ) ;
#175 = EDGE_CURVE ( 'NONE', #62, #62, #168, .T. ) ;
#176 = AXIS2_PLACEMENT_3D ( 'NONE', #197, #87, #26 ) ;
#177 = FACE_BOUND ( 'NONE', #36, .T. ) ;
#178 = CIRCLE ( 'NONE', #61, 0.3350000000000000200 ) ;
#179 = DIRECTION ( 'NONE',  ( 1.000000000000000000, 0.000000000000000000, -3.469446951953614189E-15 ) ) ;
#180 = ADVANCED_FACE ( 'NONE', ( #137, #53 ), #9, .T. ) ;
#181 = MECHANICAL_CONTEXT ( 'NONE', #182, 'mechanical' ) ;
#182 = APPLICATION_CONTEXT ( 'configuration controlled 3d designs of mechanical parts and assemblies' ) ;
#183 = CARTESIAN_POINT ( 'NONE',  ( 0.3350000000000004086, 0.000000000000000000, 0.1024657890324939258 ) ) ;
#184 = CIRCLE ( 'NONE', #176, 0.1900000000000000022 ) ;
#185 = DIRECTION ( 'NONE',  ( 1.000000000000000000, 0.000000000000000000, -3.491481338843133355E-15 ) ) ;
#186 = DATE_AND_TIME ( #17, #206 ) ;
#187 = CALENDAR_DATE ( 2023, 27, 9 ) ;
#188 = PERSON_AND_ORGANIZATION_ROLE ( 'creator' ) ;
#189 = PERSON_AND_ORGANIZATION_ROLE ( 'classification_officer' ) ;
#190 = CC_DESIGN_SECURITY_CLASSIFICATION ( #106, ( #74 ) ) ;
#191 = ORIENTED_EDGE ( 'NONE', *, *, #70, .T. ) ;
#192 = DESIGN_CONTEXT ( 'detailed design', #149, 'design' ) ;
#193 = DIRECTION ( 'NONE',  ( 3.491481338843133355E-15, -0.000000000000000000, 1.000000000000000000 ) ) ;
#194 = CIRCLE ( 'NONE', #73, 0.3350000000000000200 ) ;
#195 = CC_DESIGN_APPROVAL ( #18, ( #142 ) ) ;
#196 = VERTEX_POINT ( 'NONE', #115 ) ;
#197 = CARTESIAN_POINT ( 'NONE',  ( 6.500495054502865107E-16, 0.000000000000000000, 0.1861815780649922480 ) ) ;
#198 = EDGE_LOOP ( 'NONE', ( #107 ) ) ;
#199 = DIRECTION ( 'NONE',  ( 1.000000000000000000, 0.000000000000000000, -3.491481338843133750E-15 ) ) ;
#200 = ORIENTED_EDGE ( 'NONE', *, *, #252, .T. ) ;
#201 = AXIS2_PLACEMENT_3D ( 'NONE', #29, #114, #7 ) ;
#202 = VERTEX_POINT ( 'NONE', #259 ) ;
#203 = CARTESIAN_POINT ( 'NONE',  ( 0.1899999999999999467, 0.000000000000000000, -6.633814543801952192E-16 ) ) ;
#204 = DIRECTION ( 'NONE',  ( 3.491481338843133355E-15, -0.000000000000000000, 1.000000000000000000 ) ) ;
#205 = COORDINATED_UNIVERSAL_TIME_OFFSET ( 1, 0, .AHEAD. ) ;
#206 = LOCAL_TIME ( 7, 43, 27.00000000000000000, #100 ) ;
#207 = EDGE_CURVE ( 'NONE', #141, #141, #233, .T. ) ;
#208 =( LENGTH_UNIT ( ) NAMED_UNIT ( * ) SI_UNIT ( .MILLI., .METRE. ) );
#209 = DATE_AND_TIME ( #187, #212 ) ;
#210 = CALENDAR_DATE ( 2023, 27, 9 ) ;
#211 = CIRCLE ( 'NONE', #37, 1.499999999999996225 ) ;
#212 = LOCAL_TIME ( 7, 43, 27.00000000000000000, #205 ) ;
#213 = ORIENTED_EDGE ( 'NONE', *, *, #33, .F. ) ;
#214 = DIRECTION ( 'NONE',  ( 1.000000000000000000, 0.000000000000000000, -3.870868845007350543E-15 ) ) ;
#215 = FACE_OUTER_BOUND ( 'NONE', #49, .T. ) ;
#216 = ADVANCED_FACE ( 'NONE', ( #265, #138 ), #242, .T. ) ;
#217 = PLANE ( 'NONE',  #201 ) ;
#218 = AXIS2_PLACEMENT_3D ( 'NONE', #157, #109, #89 ) ;
#219 = CARTESIAN_POINT ( 'NONE',  ( 3.577573902767939821E-16, 0.000000000000000000, 0.1024657890324950915 ) ) ;
#220 = EDGE_LOOP ( 'NONE', ( #111 ) ) ;
#221 = CARTESIAN_POINT ( 'NONE',  ( 1.316288464743861212E-13, 0.000000000000000000, 37.69999999999999574 ) ) ;
#222 = DIRECTION ( 'NONE',  ( 1.000000000000000000, 0.000000000000000000, -4.625929269271491633E-15 ) ) ;
#223 = DIRECTION ( 'NONE',  ( 3.491481338843133355E-15, -0.000000000000000000, 1.000000000000000000 ) ) ;
#224 = ORIENTED_EDGE ( 'NONE', *, *, #207, .T. ) ;
#225 = PERSON_AND_ORGANIZATION_ROLE ( 'design_supplier' ) ;
#226 = CC_DESIGN_APPROVAL ( #99, ( #106 ) ) ;
#227 = EDGE_LOOP ( 'NONE', ( #200 ) ) ;
#228 = APPROVAL ( #80, 'UNSPECIFIED' ) ;
#229 =( GEOMETRIC_REPRESENTATION_CONTEXT ( 3 ) GLOBAL_UNCERTAINTY_ASSIGNED_CONTEXT ( ( #21 ) ) GLOBAL_UNIT_ASSIGNED_CONTEXT ( ( #208, #160, #144 ) ) REPRESENTATION_CONTEXT ( 'NONE', 'WORKASPACE' ) );
#230 = CARTESIAN_POINT ( 'NONE',  ( 0.1900000000000085787, 0.000000000000000000, 2.500000000000001332 ) ) ;
#231 = DATE_TIME_ROLE ( 'classification_date' ) ;
#232 = PLANE ( 'NONE',  #81 ) ;
#233 = CIRCLE ( 'NONE', #1, 1.500000000000000000 ) ;
#234 = CARTESIAN_POINT ( 'NONE',  ( 2.922921151734924793E-16, 0.000000000000000000, 0.08371578903249715653 ) ) ;
#235 = AXIS2_PLACEMENT_3D ( 'NONE', #52, #130, #117 ) ;
#236 = FACE_OUTER_BOUND ( 'NONE', #8, .T. ) ;
#237 = EDGE_LOOP ( 'NONE', ( #54 ) ) ;
#238 = DIRECTION ( 'NONE',  ( 1.000000000000000000, 0.000000000000000000, -3.479156225140051412E-15 ) ) ;
#239 = FACE_OUTER_BOUND ( 'NONE', #71, .T. ) ;
#240 = DIRECTION ( 'NONE',  ( 3.491481338843133355E-15, -0.000000000000000000, 1.000000000000000000 ) ) ;
#241 = ORIENTED_EDGE ( 'NONE', *, *, #33, .T. ) ;
#242 = CONICAL_SURFACE ( 'NONE', #161, 0.2240741737109298581, 0.2617993877991428575 ) ;
#243 = FACE_OUTER_BOUND ( 'NONE', #244, .T. ) ;
#244 = EDGE_LOOP ( 'NONE', ( #67 ) ) ;
#245 = VERTEX_POINT ( 'NONE', #58 ) ;
#246 = CC_DESIGN_PERSON_AND_ORGANIZATION_ASSIGNMENT ( #266, #189, ( #106 ) ) ;
#247 = AXIS2_PLACEMENT_3D ( 'NONE', #57, #240, #27 ) ;
#248 = VERTEX_POINT ( 'NONE', #230 ) ;
#249 = PRODUCT_RELATED_PRODUCT_CATEGORY ( 'detail', '', ( #153 ) ) ;
#250 = COORDINATED_UNIVERSAL_TIME_OFFSET ( 1, 0, .AHEAD. ) ;
#251 = AXIS2_PLACEMENT_3D ( 'NONE', #11, #93, #199 ) ;
#252 = EDGE_CURVE ( 'NONE', #248, #248, #85, .T. ) ;
#253 = PERSON_AND_ORGANIZATION ( #24, #113 ) ;
#254 = CARTESIAN_POINT ( 'NONE',  ( 3.577573902767939821E-16, 0.000000000000000000, 0.1024657890324950915 ) ) ;
#255 = EDGE_CURVE ( 'NONE', #146, #146, #178, .T. ) ;
#256 = DIRECTION ( 'NONE',  ( 1.000000000000000000, 0.000000000000000000, -5.782411586589390376E-15 ) ) ;
#257 = EDGE_LOOP ( 'NONE', ( #72 ) ) ;
#258 = CONICAL_SURFACE ( 'NONE', #218, 1.499999999999996225, 0.7853981633974504994 ) ;
#259 = CARTESIAN_POINT ( 'NONE',  ( 0.1900000000000006684, 0.000000000000000000, 0.1861815780649916097 ) ) ;
#260 = AXIS2_PLACEMENT_3D ( 'NONE', #174, #112, #222 ) ;
#261 = DIRECTION ( 'NONE',  ( 3.491481338843133355E-15, -0.000000000000000000, 1.000000000000000000 ) ) ;
#262 = PRODUCT_DEFINITION_SHAPE ( 'NONE', 'NONE',  #142 ) ;
#263 = EDGE_LOOP ( 'NONE', ( #59 ) ) ;
#264 = MANIFOLD_SOLID_BREP ( 'Corps-Déplacer/Copier1', #156 ) ;
#265 = FACE_OUTER_BOUND ( 'NONE', #220, .T. ) ;
#266 = PERSON_AND_ORGANIZATION ( #24, #113 ) ;
#267 = ADVANCED_FACE ( 'NONE', ( #215, #177 ), #145, .T. ) ;
#268 = PERSON_AND_ORGANIZATION_ROLE ( 'design_owner' ) ;
#269 = PERSON_AND_ORGANIZATION ( #24, #113 ) ;
#270 = EDGE_LOOP ( 'NONE', ( #152 ) ) ;
#271 = PERSON_AND_ORGANIZATION ( #24, #113 ) ;
#272 = FACE_OUTER_BOUND ( 'NONE', #96, .T. ) ;
#273 = CARTESIAN_POINT ( 'NONE',  ( 0.000000000000000000, 0.000000000000000000, 0.000000000000000000 ) ) ;
#274 = APPROVAL_PERSON_ORGANIZATION ( #253, #99, #44 ) ;
#275 = COORDINATED_UNIVERSAL_TIME_OFFSET ( 1, 0, .AHEAD. ) ;
ENDSEC;
END-ISO-10303-21;
