ISO-10303-21;
HEADER;
FILE_DESCRIPTION (( 'STEP AP203' ),
    '1' );
FILE_NAME ('966006.step',
    '2023-09-27T05:43:27',
    ( '' ),
    ( '' ),
    'SwSTEP 2.0',
    'SolidWorks 2022',
    '' );
FILE_SCHEMA (( 'CONFIG_CONTROL_DESIGN' ));
ENDSEC;

DATA;
#1 = VERTEX_POINT ( 'NONE', #49 ) ;
#2 = CALENDAR_DATE ( 2023, 27, 9 ) ;
#3 = CARTESIAN_POINT ( 'NONE',  ( 1.500000000000127676, 0.000000000000000000, 37.69999999999998863 ) ) ;
#4 = ORIENTED_EDGE ( 'NONE', *, *, #212, .T. ) ;
#5 = UNCERTAINTY_MEASURE_WITH_UNIT (LENGTH_MEASURE( 1.000000000000000082E-05 ), #108, 'distance_accuracy_value', 'NONE');
#6 = EDGE_LOOP ( 'NONE', ( #4 ) ) ;
#7 = CC_DESIGN_PERSON_AND_ORGANIZATION_ASSIGNMENT ( #41, #159, ( #147 ) ) ;
#8 = EDGE_LOOP ( 'NONE', ( #270 ) ) ;
#9 = ORIENTED_EDGE ( 'NONE', *, *, #172, .T. ) ;
#10 = ADVANCED_FACE ( 'NONE', ( #211, #75 ), #171, .F. ) ;
#11 = DATE_AND_TIME ( #39, #244 ) ;
#12 = PLANE ( 'NONE',  #260 ) ;
#13 = ORIENTED_EDGE ( 'NONE', *, *, #269, .T. ) ;
#14 = APPROVAL_DATE_TIME ( #120, #178 ) ;
#15 = CIRCLE ( 'NONE', #182, 0.1849999999999998312 ) ;
#16 = SECURITY_CLASSIFICATION ( '', '', #225 ) ;
#17 = DIRECTION ( 'NONE',  ( -3.491481338843133355E-15, 0.000000000000000000, -1.000000000000000000 ) ) ;
#18 = CARTESIAN_POINT ( 'NONE',  ( 1.326762908760390423E-13, 0.000000000000000000, 38.00000000000000000 ) ) ;
#19 = PERSON ( 'UNSPECIFIED', 'UNSPECIFIED', 'UNSPECIFIED', ('UNSPECIFIED'), ('UNSPECIFIED'), ('UNSPECIFIED') ) ;
#20 = CARTESIAN_POINT ( 'NONE',  ( 0.000000000000000000, 0.000000000000000000, 0.000000000000000000 ) ) ;
#21 = CARTESIAN_POINT ( 'NONE',  ( 1.067980961487340868E-14, 0.000000000000000000, 3.058819045102516121 ) ) ;
#22 = CONICAL_SURFACE ( 'NONE', #248, 1.499999999999996225, 0.7853981633974504994 ) ;
#23 = CARTESIAN_POINT ( 'NONE',  ( 4.154265020040140758E-16, 0.000000000000000000, 0.1189828790955707594 ) ) ;
#24 = DIRECTION ( 'NONE',  ( 1.000000000000000000, 0.000000000000000000, 0.000000000000000000 ) ) ;
#25 = DIRECTION ( 'NONE',  ( 3.491481338843133355E-15, -0.000000000000000000, 1.000000000000000000 ) ) ;
#26 = AXIS2_PLACEMENT_3D ( 'NONE', #167, #87, #24 ) ;
#27 = PERSON_AND_ORGANIZATION ( #19, #199 ) ;
#28 = CARTESIAN_POINT ( 'NONE',  ( 1.326762908760390423E-13, 0.000000000000000000, 38.00000000000000000 ) ) ;
#29 = ADVANCED_FACE ( 'NONE', ( #213, #91 ), #267, .T. ) ;
#30 = AXIS2_PLACEMENT_3D ( 'NONE', #33, #113, #53 ) ;
#31 = ORIENTED_EDGE ( 'NONE', *, *, #172, .F. ) ;
#32 = PRODUCT ( '966006', '966006', '', ( #128 ) ) ;
#33 = CARTESIAN_POINT ( 'NONE',  ( 9.776147748760774973E-15, 0.000000000000000000, 2.800000000000000266 ) ) ;
#34 = AXIS2_PLACEMENT_3D ( 'NONE', #23, #105, #235 ) ;
#35 = EDGE_LOOP ( 'NONE', ( #240 ) ) ;
#36 = DIRECTION ( 'NONE',  ( 1.000000000000000000, 0.000000000000000000, -2.344220913482173924E-15 ) ) ;
#37 = PERSON_AND_ORGANIZATION_ROLE ( 'classification_officer' ) ;
#38 = EDGE_LOOP ( 'NONE', ( #73 ) ) ;
#39 = CALENDAR_DATE ( 2023, 27, 9 ) ;
#40 = EDGE_LOOP ( 'NONE', ( #190 ) ) ;
#41 = PERSON_AND_ORGANIZATION ( #19, #199 ) ;
#42 = DIRECTION ( 'NONE',  ( 1.000000000000000000, 0.000000000000000000, -3.469446951953614189E-15 ) ) ;
#43 = DIRECTION ( 'NONE',  ( 3.491481338843133355E-15, -0.000000000000000000, 1.000000000000000000 ) ) ;
#44 = APPLICATION_CONTEXT ( 'configuration controlled 3d designs of mechanical parts and assemblies' ) ;
#45 = CARTESIAN_POINT ( 'NONE',  ( 3.426873074447901345E-16, 0.000000000000000000, 0.09814954576223972049 ) ) ;
#46 = APPLICATION_PROTOCOL_DEFINITION ( 'international standard', 'config_control_design', 1994, #44 ) ;
#47 = EDGE_CURVE ( 'NONE', #228, #228, #186, .T. ) ;
#48 = DIRECTION ( 'NONE',  ( 0.000000000000000000, 0.000000000000000000, 1.000000000000000000 ) ) ;
#49 = CARTESIAN_POINT ( 'NONE',  ( 1.500000000000027311, 0.000000000000000000, 7.839299309540590066 ) ) ;
#50 = DIRECTION ( 'NONE',  ( 1.000000000000000000, 0.000000000000000000, -3.474028087893693774E-15 ) ) ;
#51 = VERTEX_POINT ( 'NONE', #274 ) ;
#52 = AXIS2_PLACEMENT_3D ( 'NONE', #187, #227, #81 ) ;
#53 = DIRECTION ( 'NONE',  ( 1.000000000000000000, 0.000000000000000000, -3.491481338843133355E-15 ) ) ;
#54 = CONICAL_SURFACE ( 'NONE', #263, 0.1850000000000000533, 1.047197551196582754 ) ;
#55 = CC_DESIGN_APPROVAL ( #126, ( #262 ) ) ;
#56 = EDGE_LOOP ( 'NONE', ( #161 ) ) ;
#57 = PERSON_AND_ORGANIZATION ( #19, #199 ) ;
#58 = APPROVAL_STATUS ( 'not_yet_approved' ) ;
#59 = APPROVAL_DATE_TIME ( #11, #126 ) ;
#60 = DIRECTION ( 'NONE',  ( 1.000000000000000000, 0.000000000000000000, -3.491481338843133355E-15 ) ) ;
#61 = FACE_OUTER_BOUND ( 'NONE', #119, .T. ) ;
#62 = APPROVAL_ROLE ( '' ) ;
#63 = DIRECTION ( 'NONE',  ( 3.491481338843133355E-15, -0.000000000000000000, 1.000000000000000000 ) ) ;
#64 = VERTEX_POINT ( 'NONE', #192 ) ;
#65 = APPROVAL ( #258, 'UNSPECIFIED' ) ;
#66 = DATE_AND_TIME ( #2, #71 ) ;
#67 = FACE_OUTER_BOUND ( 'NONE', #56, .T. ) ;
#68 = DIRECTION ( 'NONE',  ( 1.000000000000000000, 0.000000000000000000, 0.000000000000000000 ) ) ;
#69 = CC_DESIGN_APPROVAL ( #65, ( #147 ) ) ;
#70 = CYLINDRICAL_SURFACE ( 'NONE', #153, 0.3549999999999999822 ) ;
#71 = LOCAL_TIME ( 7, 43, 27.00000000000000000, #142 ) ;
#72 = APPLICATION_CONTEXT ( 'configuration controlled 3d designs of mechanical parts and assemblies' ) ;
#73 = ORIENTED_EDGE ( 'NONE', *, *, #247, .T. ) ;
#74 = CLOSED_SHELL ( 'NONE', ( #132, #114, #157, #90, #265, #203, #239, #10, #29, #259 ) ) ;
#75 = FACE_OUTER_BOUND ( 'NONE', #8, .T. ) ;
#76 = CC_DESIGN_PERSON_AND_ORGANIZATION_ASSIGNMENT ( #176, #266, ( #262 ) ) ;
#77 = PERSON_AND_ORGANIZATION_ROLE ( 'design_supplier' ) ;
#78 = COORDINATED_UNIVERSAL_TIME_OFFSET ( 1, 0, .AHEAD. ) ;
#79 = PERSON_AND_ORGANIZATION ( #19, #199 ) ;
#80 = DIRECTION ( 'NONE',  ( 3.491481338843133355E-15, -0.000000000000000000, 1.000000000000000000 ) ) ;
#81 = DIRECTION ( 'NONE',  ( -1.000000000000000000, 0.000000000000000000, 3.491481338843133355E-15 ) ) ;
#82 = EDGE_LOOP ( 'NONE', ( #219 ) ) ;
#83 = CARTESIAN_POINT ( 'NONE',  ( 0.2190741737109403175, 0.000000000000000000, 3.058819045102515233 ) ) ;
#84 = DIRECTION ( 'NONE',  ( -1.000000000000000000, 0.000000000000000000, 3.474028087893693774E-15 ) ) ;
#85 = FACE_OUTER_BOUND ( 'NONE', #179, .T. ) ;
#86 = VERTEX_POINT ( 'NONE', #83 ) ;
#87 = DIRECTION ( 'NONE',  ( 3.491481338843133355E-15, -0.000000000000000000, 1.000000000000000000 ) ) ;
#88 = CARTESIAN_POINT ( 'NONE',  ( 0.3550000000000002598, 0.000000000000000000, 0.09814954576223848537 ) ) ;
#89 = CC_DESIGN_DATE_AND_TIME_ASSIGNMENT ( #243, #97, ( #16 ) ) ;
#90 = ADVANCED_FACE ( 'NONE', ( #229, #140 ), #95, .T. ) ;
#91 = FACE_BOUND ( 'NONE', #82, .T. ) ;
#92 = ORIENTED_EDGE ( 'NONE', *, *, #233, .F. ) ;
#93 = COORDINATED_UNIVERSAL_TIME_OFFSET ( 1, 0, .AHEAD. ) ;
#94 = MANIFOLD_SOLID_BREP ( 'Corps-Déplacer/Copier1', #74 ) ;
#95 = CONICAL_SURFACE ( 'NONE', #214, 0.3549999999999999822, 1.047197551196613396 ) ;
#96 = EDGE_LOOP ( 'NONE', ( #130 ) ) ;
#97 = DATE_TIME_ROLE ( 'classification_date' ) ;
#98 = DIRECTION ( 'NONE',  ( 3.491481338843133355E-15, -0.000000000000000000, 1.000000000000000000 ) ) ;
#99 = ORIENTED_EDGE ( 'NONE', *, *, #143, .T. ) ;
#100 = SHAPE_DEFINITION_REPRESENTATION ( #110, #241 ) ;
#101 = FACE_OUTER_BOUND ( 'NONE', #111, .T. ) ;
#102 = CARTESIAN_POINT ( 'NONE',  ( 2.737076724886685193E-14, 0.000000000000000000, 7.839299309540595395 ) ) ;
#103 = FACE_OUTER_BOUND ( 'NONE', #40, .T. ) ;
#104 =( NAMED_UNIT ( * ) PLANE_ANGLE_UNIT ( ) SI_UNIT ( $, .RADIAN. ) );
#105 = DIRECTION ( 'NONE',  ( 3.491481338843133355E-15, -0.000000000000000000, 1.000000000000000000 ) ) ;
#106 = CARTESIAN_POINT ( 'NONE',  ( 0.1850000000000000533, 0.000000000000000000, -6.459240476859798877E-16 ) ) ;
#107 = DIRECTION ( 'NONE',  ( 3.491481338843133355E-15, -0.000000000000000000, 1.000000000000000000 ) ) ;
#108 =( LENGTH_UNIT ( ) NAMED_UNIT ( * ) SI_UNIT ( .MILLI., .METRE. ) );
#109 = FACE_OUTER_BOUND ( 'NONE', #200, .T. ) ;
#110 = PRODUCT_DEFINITION_SHAPE ( 'NONE', 'NONE',  #147 ) ;
#111 = EDGE_LOOP ( 'NONE', ( #99 ) ) ;
#112 = APPLICATION_PROTOCOL_DEFINITION ( 'international standard', 'config_control_design', 1994, #72 ) ;
#113 = DIRECTION ( 'NONE',  ( 3.491481338843133355E-15, -0.000000000000000000, 1.000000000000000000 ) ) ;
#114 = ADVANCED_FACE ( 'NONE', ( #136, #191 ), #54, .T. ) ;
#115 = APPROVAL_PERSON_ORGANIZATION ( #196, #65, #62 ) ;
#116 = EDGE_LOOP ( 'NONE', ( #31 ) ) ;
#117 = AXIS2_PLACEMENT_3D ( 'NONE', #45, #25, #50 ) ;
#118 = DIRECTION ( 'NONE',  ( 1.000000000000000000, 0.000000000000000000, -4.625929269271497155E-15 ) ) ;
#119 = EDGE_LOOP ( 'NONE', ( #125 ) ) ;
#120 = DATE_AND_TIME ( #202, #273 ) ;
#121 = DIRECTION ( 'NONE',  ( 1.000000000000000000, 0.000000000000000000, -5.782411586589390376E-15 ) ) ;
#122 = CARTESIAN_POINT ( 'NONE',  ( 1.067980961487340868E-14, 0.000000000000000000, 3.058819045102516121 ) ) ;
#123 = AXIS2_PLACEMENT_3D ( 'NONE', #18, #80, #121 ) ;
#124 = APPROVAL_STATUS ( 'not_yet_approved' ) ;
#125 = ORIENTED_EDGE ( 'NONE', *, *, #47, .F. ) ;
#126 = APPROVAL ( #124, 'UNSPECIFIED' ) ;
#127 = FACE_OUTER_BOUND ( 'NONE', #162, .T. ) ;
#128 = MECHANICAL_CONTEXT ( 'NONE', #44, 'mechanical' ) ;
#129 = DIRECTION ( 'NONE',  ( 1.000000000000000000, 0.000000000000000000, -4.625929269271491633E-15 ) ) ;
#130 = ORIENTED_EDGE ( 'NONE', *, *, #247, .F. ) ;
#131 = CIRCLE ( 'NONE', #222, 1.499999999999996225 ) ;
#132 = ADVANCED_FACE ( 'NONE', ( #61 ), #12, .F. ) ;
#133 = APPROVAL_ROLE ( '' ) ;
#134 = LOCAL_TIME ( 7, 43, 27.00000000000000000, #78 ) ;
#135 = CALENDAR_DATE ( 2023, 27, 9 ) ;
#136 = FACE_OUTER_BOUND ( 'NONE', #116, .T. ) ;
#137 = CIRCLE ( 'NONE', #117, 0.3549999999999999822 ) ;
#138 = APPROVAL_ROLE ( '' ) ;
#139 = APPROVAL_PERSON_ORGANIZATION ( #79, #178, #138 ) ;
#140 = FACE_OUTER_BOUND ( 'NONE', #6, .T. ) ;
#141 = ORIENTED_EDGE ( 'NONE', *, *, #215, .F. ) ;
#142 = COORDINATED_UNIVERSAL_TIME_OFFSET ( 1, 0, .AHEAD. ) ;
#143 = EDGE_CURVE ( 'NONE', #1, #1, #210, .T. ) ;
#144 = CARTESIAN_POINT ( 'NONE',  ( 7.581138094487799036E-16, 0.000000000000000000, 0.2171324248578035410 ) ) ;
#145 = AXIS2_PLACEMENT_3D ( 'NONE', #148, #43, #129 ) ;
#146 = DESIGN_CONTEXT ( 'detailed design', #72, 'design' ) ;
#147 = PRODUCT_DEFINITION ( 'UNKNOWN', '', #262, #146 ) ;
#148 = CARTESIAN_POINT ( 'NONE',  ( 1.326762908760390423E-13, 0.000000000000000000, 38.00000000000000000 ) ) ;
#149 = CIRCLE ( 'NONE', #123, 1.199999999999993072 ) ;
#150 = EDGE_CURVE ( 'NONE', #195, #195, #131, .T. ) ;
#151 = CC_DESIGN_SECURITY_CLASSIFICATION ( #16, ( #262 ) ) ;
#152 = FACE_OUTER_BOUND ( 'NONE', #238, .T. ) ;
#153 = AXIS2_PLACEMENT_3D ( 'NONE', #28, #107, #68 ) ;
#154 = CIRCLE ( 'NONE', #208, 0.1850000000000000533 ) ;
#155 = APPROVAL_PERSON_ORGANIZATION ( #198, #126, #133 ) ;
#156 = ORIENTED_EDGE ( 'NONE', *, *, #150, .T. ) ;
#157 = ADVANCED_FACE ( 'NONE', ( #67, #152 ), #70, .T. ) ;
#158 = CARTESIAN_POINT ( 'NONE',  ( 4.154265020040140758E-16, 0.000000000000000000, 0.1189828790955707594 ) ) ;
#159 = PERSON_AND_ORGANIZATION_ROLE ( 'creator' ) ;
#160 = CARTESIAN_POINT ( 'NONE',  ( 0.000000000000000000, 0.000000000000000000, 0.000000000000000000 ) ) ;
#161 = ORIENTED_EDGE ( 'NONE', *, *, #212, .F. ) ;
#162 = EDGE_LOOP ( 'NONE', ( #156 ) ) ;
#163 = AXIS2_PLACEMENT_3D ( 'NONE', #20, #48, #234 ) ;
#164 = VERTEX_POINT ( 'NONE', #206 ) ;
#165 = CIRCLE ( 'NONE', #236, 0.2190741737109296317 ) ;
#166 = CARTESIAN_POINT ( 'NONE',  ( 0.000000000000000000, 0.000000000000000000, 0.000000000000000000 ) ) ;
#167 = CARTESIAN_POINT ( 'NONE',  ( 1.326762908760390423E-13, 0.000000000000000000, 38.00000000000000000 ) ) ;
#168 = CARTESIAN_POINT ( 'NONE',  ( 1.316288464743861212E-13, 0.000000000000000000, 37.69999999999999574 ) ) ;
#169 = CARTESIAN_POINT ( 'NONE',  ( 0.1850000000000096290, 0.000000000000000000, 2.800000000000003375 ) ) ;
#170 = DIRECTION ( 'NONE',  ( 1.000000000000000000, 0.000000000000000000, -3.516331370223256547E-15 ) ) ;
#171 = TOROIDAL_SURFACE ( 'NONE', #30, 1.184999999999999831, 1.000000000000000000 ) ;
#172 = EDGE_CURVE ( 'NONE', #207, #207, #137, .T. ) ;
#173 = DIRECTION ( 'NONE',  ( 1.000000000000000000, 0.000000000000000000, -3.959214923859054496E-15 ) ) ;
#174 = CIRCLE ( 'NONE', #34, 0.3549999999999999822 ) ;
#175 = CC_DESIGN_APPROVAL ( #178, ( #16 ) ) ;
#176 = PERSON_AND_ORGANIZATION ( #19, #199 ) ;
#177 = AXIS2_PLACEMENT_3D ( 'NONE', #160, #252, #271 ) ;
#178 = APPROVAL ( #58, 'UNSPECIFIED' ) ;
#179 = EDGE_LOOP ( 'NONE', ( #13 ) ) ;
#180 = DATE_AND_TIME ( #135, #216 ) ;
#181 = PLANE ( 'NONE',  #52 ) ;
#182 = AXIS2_PLACEMENT_3D ( 'NONE', #261, #256, #36 ) ;
#183 = DIRECTION ( 'NONE',  ( 3.491481338843133355E-15, -0.000000000000000000, 1.000000000000000000 ) ) ;
#184 = ORIENTED_EDGE ( 'NONE', *, *, #269, .F. ) ;
#185 = CALENDAR_DATE ( 2023, 27, 9 ) ;
#186 = CIRCLE ( 'NONE', #177, 0.1850000000000000533 ) ;
#187 = CARTESIAN_POINT ( 'NONE',  ( 1.326762908760390423E-13, 1.199999999999993072, 38.00000000000000000 ) ) ;
#188 = CARTESIAN_POINT ( 'NONE',  ( 1.316288464743861212E-13, 0.000000000000000000, 37.69999999999999574 ) ) ;
#189 = CC_DESIGN_PERSON_AND_ORGANIZATION_ASSIGNMENT ( #27, #194, ( #32 ) ) ;
#190 = ORIENTED_EDGE ( 'NONE', *, *, #150, .F. ) ;
#191 = FACE_BOUND ( 'NONE', #197, .T. ) ;
#192 = CARTESIAN_POINT ( 'NONE',  ( 0.1850000000000008027, 0.000000000000000000, 0.2171324248578029026 ) ) ;
#193 = CYLINDRICAL_SURFACE ( 'NONE', #26, 0.1849999999999999423 ) ;
#194 = PERSON_AND_ORGANIZATION_ROLE ( 'design_owner' ) ;
#195 = VERTEX_POINT ( 'NONE', #3 ) ;
#196 = PERSON_AND_ORGANIZATION ( #19, #199 ) ;
#197 = EDGE_LOOP ( 'NONE', ( #272 ) ) ;
#198 = PERSON_AND_ORGANIZATION ( #19, #199 ) ;
#199 = ORGANIZATION ( 'UNSPECIFIED', 'UNSPECIFIED', '' ) ;
#200 = EDGE_LOOP ( 'NONE', ( #92 ) ) ;
#201 = DIRECTION ( 'NONE',  ( 1.000000000000000000, 0.000000000000000000, -3.959214923859054496E-15 ) ) ;
#202 = CALENDAR_DATE ( 2023, 27, 9 ) ;
#203 = ADVANCED_FACE ( 'NONE', ( #275, #127 ), #22, .T. ) ;
#204 = DIRECTION ( 'NONE',  ( -1.000000000000000000, 0.000000000000000000, 4.625929269271497155E-15 ) ) ;
#205 = CC_DESIGN_DATE_AND_TIME_ASSIGNMENT ( #180, #245, ( #147 ) ) ;
#206 = CARTESIAN_POINT ( 'NONE',  ( 1.200000000000125855, 0.000000000000000000, 37.99999999999999289 ) ) ;
#207 = VERTEX_POINT ( 'NONE', #88 ) ;
#208 = AXIS2_PLACEMENT_3D ( 'NONE', #144, #232, #170 ) ;
#209 = DIRECTION ( 'NONE',  ( 3.491481338843133355E-15, -0.000000000000000000, 1.000000000000000000 ) ) ;
#210 = CIRCLE ( 'NONE', #255, 1.500000000000000000 ) ;
#211 = FACE_OUTER_BOUND ( 'NONE', #268, .T. ) ;
#212 = EDGE_CURVE ( 'NONE', #51, #51, #174, .T. ) ;
#213 = FACE_OUTER_BOUND ( 'NONE', #35, .T. ) ;
#214 = AXIS2_PLACEMENT_3D ( 'NONE', #158, #17, #84 ) ;
#215 = EDGE_CURVE ( 'NONE', #86, #86, #165, .T. ) ;
#216 = LOCAL_TIME ( 7, 43, 27.00000000000000000, #220 ) ;
#217 = PERSON_AND_ORGANIZATION ( #19, #199 ) ;
#218 =( GEOMETRIC_REPRESENTATION_CONTEXT ( 3 ) GLOBAL_UNCERTAINTY_ASSIGNED_CONTEXT ( ( #5 ) ) GLOBAL_UNIT_ASSIGNED_CONTEXT ( ( #108, #104, #230 ) ) REPRESENTATION_CONTEXT ( 'NONE', 'WORKASPACE' ) );
#219 = ORIENTED_EDGE ( 'NONE', *, *, #215, .T. ) ;
#220 = COORDINATED_UNIVERSAL_TIME_OFFSET ( 1, 0, .AHEAD. ) ;
#221 = CARTESIAN_POINT ( 'NONE',  ( 0.000000000000000000, 0.000000000000000000, 0.000000000000000000 ) ) ;
#222 = AXIS2_PLACEMENT_3D ( 'NONE', #188, #63, #118 ) ;
#223 = COORDINATED_UNIVERSAL_TIME_OFFSET ( 1, 0, .AHEAD. ) ;
#224 = PRODUCT_RELATED_PRODUCT_CATEGORY ( 'detail', '', ( #32 ) ) ;
#225 = SECURITY_CLASSIFICATION_LEVEL ( 'unclassified' ) ;
#226 = DIRECTION ( 'NONE',  ( 3.491481338843133355E-15, -0.000000000000000000, 1.000000000000000000 ) ) ;
#227 = DIRECTION ( 'NONE',  ( -3.491481338843133355E-15, 0.000000000000000000, -1.000000000000000000 ) ) ;
#228 = VERTEX_POINT ( 'NONE', #106 ) ;
#229 = FACE_BOUND ( 'NONE', #251, .T. ) ;
#230 =( NAMED_UNIT ( * ) SI_UNIT ( $, .STERADIAN. ) SOLID_ANGLE_UNIT ( ) );
#231 = DIRECTION ( 'NONE',  ( -3.491481338843133355E-15, 0.000000000000000000, -1.000000000000000000 ) ) ;
#232 = DIRECTION ( 'NONE',  ( 3.491481338843133355E-15, -0.000000000000000000, 1.000000000000000000 ) ) ;
#233 = EDGE_CURVE ( 'NONE', #257, #257, #15, .T. ) ;
#234 = DIRECTION ( 'NONE',  ( 1.000000000000000000, 0.000000000000000000, 0.000000000000000000 ) ) ;
#235 = DIRECTION ( 'NONE',  ( 1.000000000000000000, 0.000000000000000000, -3.474028087893693774E-15 ) ) ;
#236 = AXIS2_PLACEMENT_3D ( 'NONE', #21, #209, #173 ) ;
#237 = APPROVAL_DATE_TIME ( #66, #65 ) ;
#238 = EDGE_LOOP ( 'NONE', ( #9 ) ) ;
#239 = ADVANCED_FACE ( 'NONE', ( #264 ), #181, .F. ) ;
#240 = ORIENTED_EDGE ( 'NONE', *, *, #143, .F. ) ;
#241 = ADVANCED_BREP_SHAPE_REPRESENTATION ( '966006', ( #94, #163 ), #218 ) ;
#242 = CC_DESIGN_PERSON_AND_ORGANIZATION_ASSIGNMENT ( #217, #37, ( #16 ) ) ;
#243 = DATE_AND_TIME ( #185, #134 ) ;
#244 = LOCAL_TIME ( 7, 43, 27.00000000000000000, #93 ) ;
#245 = DATE_TIME_ROLE ( 'creation_date' ) ;
#246 = AXIS2_PLACEMENT_3D ( 'NONE', #122, #183, #201 ) ;
#247 = EDGE_CURVE ( 'NONE', #164, #164, #149, .T. ) ;
#248 = AXIS2_PLACEMENT_3D ( 'NONE', #168, #231, #204 ) ;
#249 = CYLINDRICAL_SURFACE ( 'NONE', #145, 1.499999999999998002 ) ;
#250 = DIRECTION ( 'NONE',  ( 3.491481338843133355E-15, -0.000000000000000000, 1.000000000000000000 ) ) ;
#251 = EDGE_LOOP ( 'NONE', ( #184 ) ) ;
#252 = DIRECTION ( 'NONE',  ( 3.491481338843133355E-15, -0.000000000000000000, 1.000000000000000000 ) ) ;
#253 = CC_DESIGN_PERSON_AND_ORGANIZATION_ASSIGNMENT ( #57, #77, ( #262 ) ) ;
#254 = DIRECTION ( 'NONE',  ( 1.000000000000000000, 0.000000000000000000, -3.491481338843133355E-15 ) ) ;
#255 = AXIS2_PLACEMENT_3D ( 'NONE', #102, #98, #42 ) ;
#256 = DIRECTION ( 'NONE',  ( 3.491481338843133355E-15, -0.000000000000000000, 1.000000000000000000 ) ) ;
#257 = VERTEX_POINT ( 'NONE', #169 ) ;
#258 = APPROVAL_STATUS ( 'not_yet_approved' ) ;
#259 = ADVANCED_FACE ( 'NONE', ( #103, #101 ), #249, .T. ) ;
#260 = AXIS2_PLACEMENT_3D ( 'NONE', #166, #226, #254 ) ;
#261 = CARTESIAN_POINT ( 'NONE',  ( 9.776147748760786017E-15, 0.000000000000000000, 2.800000000000003819 ) ) ;
#262 = PRODUCT_DEFINITION_FORMATION_WITH_SPECIFIED_SOURCE ( 'ANY', '', #32, .NOT_KNOWN. ) ;
#263 = AXIS2_PLACEMENT_3D ( 'NONE', #221, #250, #60 ) ;
#264 = FACE_OUTER_BOUND ( 'NONE', #38, .T. ) ;
#265 = ADVANCED_FACE ( 'NONE', ( #109, #85 ), #193, .T. ) ;
#266 = PERSON_AND_ORGANIZATION_ROLE ( 'creator' ) ;
#267 = CONICAL_SURFACE ( 'NONE', #246, 0.2190741737109296317, 0.2617993877991430240 ) ;
#268 = EDGE_LOOP ( 'NONE', ( #141 ) ) ;
#269 = EDGE_CURVE ( 'NONE', #64, #64, #154, .T. ) ;
#270 = ORIENTED_EDGE ( 'NONE', *, *, #233, .T. ) ;
#271 = DIRECTION ( 'NONE',  ( 1.000000000000000000, 0.000000000000000000, -3.491481338843133355E-15 ) ) ;
#272 = ORIENTED_EDGE ( 'NONE', *, *, #47, .T. ) ;
#273 = LOCAL_TIME ( 7, 43, 27.00000000000000000, #223 ) ;
#274 = CARTESIAN_POINT ( 'NONE',  ( 0.3550000000000003708, 0.000000000000000000, 0.1189828790955695242 ) ) ;
#275 = FACE_BOUND ( 'NONE', #96, .T. ) ;
ENDSEC;
END-ISO-10303-21;
