ISO-10303-21;
HEADER;
FILE_DESCRIPTION (( 'STEP AP203' ),
    '1' );
FILE_NAME ('966005.step',
    '2023-09-27T05:43:26',
    ( '' ),
    ( '' ),
    'SwSTEP 2.0',
    'SolidWorks 2022',
    '' );
FILE_SCHEMA (( 'CONFIG_CONTROL_DESIGN' ));
ENDSEC;

DATA;
#1 = APPROVAL ( #81, 'UNSPECIFIED' ) ;
#2 = DIRECTION ( 'NONE',  ( 3.491481338843133355E-15, -0.000000000000000000, 1.000000000000000000 ) ) ;
#3 = COORDINATED_UNIVERSAL_TIME_OFFSET ( 1, 0, .AHEAD. ) ;
#4 = FACE_OUTER_BOUND ( 'NONE', #138, .T. ) ;
#5 = PERSON_AND_ORGANIZATION ( #87, #275 ) ;
#6 = CC_DESIGN_APPROVAL ( #195, ( #168 ) ) ;
#7 = CALENDAR_DATE ( 2023, 27, 9 ) ;
#8 = ADVANCED_FACE ( 'NONE', ( #162, #140 ), #226, .T. ) ;
#9 = CARTESIAN_POINT ( 'NONE',  ( 0.8000000000000284661, 0.000000000000000000, 8.399999999999998579 ) ) ;
#10 = CARTESIAN_POINT ( 'NONE',  ( 1.500000000000038858, 0.000000000000000000, 11.14408806288567355 ) ) ;
#11 = ORIENTED_EDGE ( 'NONE', *, *, #163, .T. ) ;
#12 = CONICAL_SURFACE ( 'NONE', #259, 0.8340741737109290677, 0.2617993877991430796 ) ;
#13 = APPLICATION_CONTEXT ( 'configuration controlled 3d designs of mechanical parts and assemblies' ) ;
#14 = ORIENTED_EDGE ( 'NONE', *, *, #257, .T. ) ;
#15 = CARTESIAN_POINT ( 'NONE',  ( 1.326762908760390423E-13, 0.000000000000000000, 38.00000000000000000 ) ) ;
#16 = AXIS2_PLACEMENT_3D ( 'NONE', #104, #271, #107 ) ;
#17 = AXIS2_PLACEMENT_3D ( 'NONE', #246, #184, #67 ) ;
#18 = FACE_OUTER_BOUND ( 'NONE', #117, .T. ) ;
#19 = DIRECTION ( 'NONE',  ( 3.491481338843133355E-15, -0.000000000000000000, 1.000000000000000000 ) ) ;
#20 = PRODUCT_RELATED_PRODUCT_CATEGORY ( 'detail', '', ( #182 ) ) ;
#21 = DIRECTION ( 'NONE',  ( 3.491481338843133355E-15, -0.000000000000000000, 1.000000000000000000 ) ) ;
#22 = CIRCLE ( 'NONE', #178, 0.7999999999999990452 ) ;
#23 = DIRECTION ( 'NONE',  ( 1.000000000000000000, 0.000000000000000000, -4.625929269271497155E-15 ) ) ;
#24 = EDGE_CURVE ( 'NONE', #135, #135, #35, .T. ) ;
#25 = CIRCLE ( 'NONE', #153, 0.7999999999999997113 ) ;
#26 = CALENDAR_DATE ( 2023, 27, 9 ) ;
#27 = MECHANICAL_CONTEXT ( 'NONE', #145, 'mechanical' ) ;
#28 = CARTESIAN_POINT ( 'NONE',  ( 1.326762908760390423E-13, 0.000000000000000000, 38.00000000000000000 ) ) ;
#29 = ADVANCED_FACE ( 'NONE', ( #209, #18 ), #189, .T. ) ;
#30 = CARTESIAN_POINT ( 'NONE',  ( 0.8340741737109593767, 0.000000000000000000, 8.658819045102513101 ) ) ;
#31 = CC_DESIGN_SECURITY_CLASSIFICATION ( #71, ( #168 ) ) ;
#32 = CYLINDRICAL_SURFACE ( 'NONE', #144, 0.7999999999999994893 ) ;
#33 = CARTESIAN_POINT ( 'NONE',  ( 2.932844324628232650E-14, 0.000000000000000000, 8.400000000000000355 ) ) ;
#34 = EDGE_LOOP ( 'NONE', ( #143 ) ) ;
#35 = CIRCLE ( 'NONE', #174, 1.500000000000000000 ) ;
#36 = APPROVAL_PERSON_ORGANIZATION ( #52, #195, #112 ) ;
#37 = ORIENTED_EDGE ( 'NONE', *, *, #247, .F. ) ;
#38 = EDGE_LOOP ( 'NONE', ( #160 ) ) ;
#39 = EDGE_LOOP ( 'NONE', ( #268 ) ) ;
#40 = DIRECTION ( 'NONE',  ( -3.491481338843133355E-15, 0.000000000000000000, -1.000000000000000000 ) ) ;
#41 = CC_DESIGN_PERSON_AND_ORGANIZATION_ASSIGNMENT ( #156, #47, ( #71 ) ) ;
#42 = DIRECTION ( 'NONE',  ( 1.000000000000000000, 0.000000000000000000, -4.159638388654921333E-15 ) ) ;
#43 = CARTESIAN_POINT ( 'NONE',  ( 0.000000000000000000, 0.000000000000000000, 0.000000000000000000 ) ) ;
#44 = AXIS2_PLACEMENT_3D ( 'NONE', #45, #40, #127 ) ;
#45 = CARTESIAN_POINT ( 'NONE',  ( 1.326762908760390423E-13, 1.199999999999993072, 38.00000000000000000 ) ) ;
#46 = CC_DESIGN_PERSON_AND_ORGANIZATION_ASSIGNMENT ( #100, #181, ( #168 ) ) ;
#47 = PERSON_AND_ORGANIZATION_ROLE ( 'classification_officer' ) ;
#48 = AXIS2_PLACEMENT_3D ( 'NONE', #108, #21, #63 ) ;
#49 = APPROVAL_ROLE ( '' ) ;
#50 = PERSON_AND_ORGANIZATION_ROLE ( 'design_owner' ) ;
#51 = EDGE_CURVE ( 'NONE', #134, #134, #150, .T. ) ;
#52 = PERSON_AND_ORGANIZATION ( #87, #275 ) ;
#53 = VERTEX_POINT ( 'NONE', #9 ) ;
#54 = FACE_OUTER_BOUND ( 'NONE', #34, .T. ) ;
#55 = VERTEX_POINT ( 'NONE', #240 ) ;
#56 = ORIENTED_EDGE ( 'NONE', *, *, #51, .T. ) ;
#57 = EDGE_CURVE ( 'NONE', #222, #222, #207, .T. ) ;
#58 = CARTESIAN_POINT ( 'NONE',  ( 1.670837508328685961E-15, 0.000000000000000000, 0.4785468820183644278 ) ) ;
#59 = CARTESIAN_POINT ( 'NONE',  ( 1.316288464743861212E-13, 0.000000000000000000, 37.69999999999999574 ) ) ;
#60 = ORIENTED_EDGE ( 'NONE', *, *, #66, .T. ) ;
#61 = LOCAL_TIME ( 7, 43, 26.00000000000000000, #180 ) ;
#62 = DIRECTION ( 'NONE',  ( 3.491481338843133355E-15, -0.000000000000000000, 1.000000000000000000 ) ) ;
#63 = DIRECTION ( 'NONE',  ( 1.000000000000000000, 0.000000000000000000, -3.491481338843133750E-15 ) ) ;
#64 = DIRECTION ( 'NONE',  ( 3.491481338843133355E-15, -0.000000000000000000, 1.000000000000000000 ) ) ;
#65 = LOCAL_TIME ( 7, 43, 26.00000000000000000, #154 ) ;
#66 = EDGE_CURVE ( 'NONE', #203, #203, #224, .T. ) ;
#67 = DIRECTION ( 'NONE',  ( -1.000000000000000000, 0.000000000000000000, 3.478481970057660322E-15 ) ) ;
#68 = PERSON_AND_ORGANIZATION ( #87, #275 ) ;
#69 = AXIS2_PLACEMENT_3D ( 'NONE', #15, #126, #186 ) ;
#70 = ORIENTED_EDGE ( 'NONE', *, *, #24, .T. ) ;
#71 = SECURITY_CLASSIFICATION ( '', '', #115 ) ;
#72 = VERTEX_POINT ( 'NONE', #79 ) ;
#73 = PERSON_AND_ORGANIZATION ( #87, #275 ) ;
#74 = DIRECTION ( 'NONE',  ( 0.000000000000000000, 0.000000000000000000, 1.000000000000000000 ) ) ;
#75 = APPROVAL_ROLE ( '' ) ;
#76 = ADVANCED_FACE ( 'NONE', ( #215, #91 ), #12, .T. ) ;
#77 = DATE_AND_TIME ( #7, #65 ) ;
#78 = FACE_BOUND ( 'NONE', #248, .T. ) ;
#79 = CARTESIAN_POINT ( 'NONE',  ( 0.7999999999999997113, 0.000000000000000000, -2.793185071074505895E-15 ) ) ;
#80 = EDGE_LOOP ( 'NONE', ( #166 ) ) ;
#81 = APPROVAL_STATUS ( 'not_yet_approved' ) ;
#82 = EDGE_LOOP ( 'NONE', ( #228 ) ) ;
#83 = APPLICATION_PROTOCOL_DEFINITION ( 'international standard', 'config_control_design', 1994, #13 ) ;
#84 = AXIS2_PLACEMENT_3D ( 'NONE', #194, #2, #92 ) ;
#85 = CARTESIAN_POINT ( 'NONE',  ( 3.023210511239495863E-14, 0.000000000000000000, 8.658819045102516654 ) ) ;
#86 = ORIENTED_EDGE ( 'NONE', *, *, #66, .F. ) ;
#87 = PERSON ( 'UNSPECIFIED', 'UNSPECIFIED', 'UNSPECIFIED', ('UNSPECIFIED'), ('UNSPECIFIED'), ('UNSPECIFIED') ) ;
#88 = CARTESIAN_POINT ( 'NONE',  ( 2.932844324628232650E-14, 0.000000000000000000, 8.400000000000000355 ) ) ;
#89 = CLOSED_SHELL ( 'NONE', ( #101, #95, #8, #229, #272, #199, #213, #176, #76, #29 ) ) ;
#90 = AXIS2_PLACEMENT_3D ( 'NONE', #59, #19, #23 ) ;
#91 = FACE_BOUND ( 'NONE', #80, .T. ) ;
#92 = DIRECTION ( 'NONE',  ( 1.000000000000000000, 0.000000000000000000, -3.478481970057660322E-15 ) ) ;
#93 = LOCAL_TIME ( 7, 43, 26.00000000000000000, #110 ) ;
#94 = DATE_AND_TIME ( #26, #192 ) ;
#95 = ADVANCED_FACE ( 'NONE', ( #111, #167 ), #245, .T. ) ;
#96 =( NAMED_UNIT ( * ) PLANE_ANGLE_UNIT ( ) SI_UNIT ( $, .RADIAN. ) );
#97 =( NAMED_UNIT ( * ) SI_UNIT ( $, .STERADIAN. ) SOLID_ANGLE_UNIT ( ) );
#98 = APPROVAL_DATE_TIME ( #221, #195 ) ;
#99 = DIRECTION ( 'NONE',  ( 3.491481338843133355E-15, -0.000000000000000000, 1.000000000000000000 ) ) ;
#100 = PERSON_AND_ORGANIZATION ( #87, #275 ) ;
#101 = ADVANCED_FACE ( 'NONE', ( #274 ), #254, .F. ) ;
#102 = VERTEX_POINT ( 'NONE', #242 ) ;
#103 = ORIENTED_EDGE ( 'NONE', *, *, #51, .F. ) ;
#104 = CARTESIAN_POINT ( 'NONE',  ( 1.326762908760390423E-13, 0.000000000000000000, 38.00000000000000000 ) ) ;
#105 = EDGE_LOOP ( 'NONE', ( #253 ) ) ;
#106 = AXIS2_PLACEMENT_3D ( 'NONE', #43, #128, #146 ) ;
#107 = DIRECTION ( 'NONE',  ( 1.000000000000000000, 0.000000000000000000, -4.625929269271491633E-15 ) ) ;
#108 = CARTESIAN_POINT ( 'NONE',  ( 0.000000000000000000, 0.000000000000000000, 0.000000000000000000 ) ) ;
#109 = DIRECTION ( 'NONE',  ( 1.000000000000000000, 0.000000000000000000, -5.782411586589390376E-15 ) ) ;
#110 = COORDINATED_UNIVERSAL_TIME_OFFSET ( 1, 0, .AHEAD. ) ;
#111 = FACE_OUTER_BOUND ( 'NONE', #123, .T. ) ;
#112 = APPROVAL_ROLE ( '' ) ;
#113 = CONICAL_SURFACE ( 'NONE', #17, 1.199999999999999956, 1.047197551196605181 ) ;
#114 = EDGE_LOOP ( 'NONE', ( #11 ) ) ;
#115 = SECURITY_CLASSIFICATION_LEVEL ( 'unclassified' ) ;
#116 = CARTESIAN_POINT ( 'NONE',  ( 0.8000000000000015987, 0.000000000000000000, 0.4785468820183615968 ) ) ;
#117 = EDGE_LOOP ( 'NONE', ( #70 ) ) ;
#118 = APPROVAL_DATE_TIME ( #241, #251 ) ;
#119 = DIRECTION ( 'NONE',  ( 1.000000000000000000, 0.000000000000000000, -3.501069515317774866E-15 ) ) ;
#120 = DIRECTION ( 'NONE',  ( 3.491481338843133355E-15, -0.000000000000000000, 1.000000000000000000 ) ) ;
#121 = DIRECTION ( 'NONE',  ( 1.000000000000000000, 0.000000000000000000, -4.336808689942023258E-15 ) ) ;
#122 = UNCERTAINTY_MEASURE_WITH_UNIT (LENGTH_MEASURE( 1.000000000000000082E-05 ), #158, 'distance_accuracy_value', 'NONE');
#123 = EDGE_LOOP ( 'NONE', ( #125 ) ) ;
#124 =( GEOMETRIC_REPRESENTATION_CONTEXT ( 3 ) GLOBAL_UNCERTAINTY_ASSIGNED_CONTEXT ( ( #122 ) ) GLOBAL_UNIT_ASSIGNED_CONTEXT ( ( #158, #96, #97 ) ) REPRESENTATION_CONTEXT ( 'NONE', 'WORKASPACE' ) );
#125 = ORIENTED_EDGE ( 'NONE', *, *, #219, .F. ) ;
#126 = DIRECTION ( 'NONE',  ( 3.491481338843133355E-15, -0.000000000000000000, 1.000000000000000000 ) ) ;
#127 = DIRECTION ( 'NONE',  ( -1.000000000000000000, 0.000000000000000000, 3.491481338843133355E-15 ) ) ;
#128 = DIRECTION ( 'NONE',  ( 3.491481338843133355E-15, -0.000000000000000000, 1.000000000000000000 ) ) ;
#129 = CC_DESIGN_PERSON_AND_ORGANIZATION_ASSIGNMENT ( #5, #152, ( #168 ) ) ;
#130 = CARTESIAN_POINT ( 'NONE',  ( 1.316288464743861212E-13, 0.000000000000000000, 37.69999999999999574 ) ) ;
#131 = PERSON_AND_ORGANIZATION ( #87, #275 ) ;
#132 = APPROVAL_PERSON_ORGANIZATION ( #68, #1, #75 ) ;
#133 = APPROVAL_STATUS ( 'not_yet_approved' ) ;
#134 = VERTEX_POINT ( 'NONE', #116 ) ;
#135 = VERTEX_POINT ( 'NONE', #10 ) ;
#136 = CIRCLE ( 'NONE', #236, 1.199999999999999956 ) ;
#137 = DIRECTION ( 'NONE',  ( 1.000000000000000000, 0.000000000000000000, -3.491481338843133750E-15 ) ) ;
#138 = EDGE_LOOP ( 'NONE', ( #142 ) ) ;
#139 = CIRCLE ( 'NONE', #84, 1.199999999999999956 ) ;
#140 = FACE_OUTER_BOUND ( 'NONE', #38, .T. ) ;
#141 = DIRECTION ( 'NONE',  ( 3.491481338843133355E-15, -0.000000000000000000, 1.000000000000000000 ) ) ;
#142 = ORIENTED_EDGE ( 'NONE', *, *, #204, .T. ) ;
#143 = ORIENTED_EDGE ( 'NONE', *, *, #257, .F. ) ;
#144 = AXIS2_PLACEMENT_3D ( 'NONE', #28, #223, #205 ) ;
#145 = APPLICATION_CONTEXT ( 'configuration controlled 3d designs of mechanical parts and assemblies' ) ;
#146 = DIRECTION ( 'NONE',  ( 1.000000000000000000, 0.000000000000000000, -3.491481338843133355E-15 ) ) ;
#147 = PRODUCT_DEFINITION ( 'UNKNOWN', '', #168, #243 ) ;
#148 = FACE_OUTER_BOUND ( 'NONE', #212, .T. ) ;
#149 = FACE_OUTER_BOUND ( 'NONE', #114, .T. ) ;
#150 = CIRCLE ( 'NONE', #171, 0.7999999999999999334 ) ;
#151 = CC_DESIGN_APPROVAL ( #251, ( #71 ) ) ;
#152 = PERSON_AND_ORGANIZATION_ROLE ( 'design_supplier' ) ;
#153 = AXIS2_PLACEMENT_3D ( 'NONE', #157, #99, #137 ) ;
#154 = COORDINATED_UNIVERSAL_TIME_OFFSET ( 1, 0, .AHEAD. ) ;
#155 = DIRECTION ( 'NONE',  ( 1.000000000000000000, 0.000000000000000000, 0.000000000000000000 ) ) ;
#156 = PERSON_AND_ORGANIZATION ( #87, #275 ) ;
#157 = CARTESIAN_POINT ( 'NONE',  ( 0.000000000000000000, 0.000000000000000000, 0.000000000000000000 ) ) ;
#158 =( LENGTH_UNIT ( ) NAMED_UNIT ( * ) SI_UNIT ( .MILLI., .METRE. ) );
#159 = DIRECTION ( 'NONE',  ( 1.000000000000000000, 0.000000000000000000, -3.469446951953614189E-15 ) ) ;
#160 = ORIENTED_EDGE ( 'NONE', *, *, #219, .T. ) ;
#161 = APPROVAL_PERSON_ORGANIZATION ( #73, #251, #49 ) ;
#162 = FACE_OUTER_BOUND ( 'NONE', #39, .T. ) ;
#163 = EDGE_CURVE ( 'NONE', #102, #102, #238, .T. ) ;
#164 = DIRECTION ( 'NONE',  ( 1.000000000000000000, 0.000000000000000000, -4.159638388654921333E-15 ) ) ;
#165 = MANIFOLD_SOLID_BREP ( 'Corps-Déplacer/Copier1', #89 ) ;
#166 = ORIENTED_EDGE ( 'NONE', *, *, #57, .T. ) ;
#167 = FACE_BOUND ( 'NONE', #82, .T. ) ;
#168 = PRODUCT_DEFINITION_FORMATION_WITH_SPECIFIED_SOURCE ( 'ANY', '', #182, .NOT_KNOWN. ) ;
#169 = DIRECTION ( 'NONE',  ( 1.000000000000000000, 0.000000000000000000, -3.491481338843133355E-15 ) ) ;
#170 = DIRECTION ( 'NONE',  ( -1.000000000000000000, 0.000000000000000000, 4.625929269271497155E-15 ) ) ;
#171 = AXIS2_PLACEMENT_3D ( 'NONE', #58, #141, #227 ) ;
#172 = DIRECTION ( 'NONE',  ( 3.491481338843133355E-15, -0.000000000000000000, 1.000000000000000000 ) ) ;
#173 = DATE_TIME_ROLE ( 'creation_date' ) ;
#174 = AXIS2_PLACEMENT_3D ( 'NONE', #267, #250, #159 ) ;
#175 = CARTESIAN_POINT ( 'NONE',  ( 1.200000000000000844, 0.000000000000000000, 0.2309401076758490767 ) ) ;
#176 = ADVANCED_FACE ( 'NONE', ( #191, #148 ), #220, .F. ) ;
#177 = AXIS2_PLACEMENT_3D ( 'NONE', #190, #62, #109 ) ;
#178 = AXIS2_PLACEMENT_3D ( 'NONE', #33, #120, #121 ) ;
#179 = PRODUCT_DEFINITION_SHAPE ( 'NONE', 'NONE',  #147 ) ;
#180 = COORDINATED_UNIVERSAL_TIME_OFFSET ( 1, 0, .AHEAD. ) ;
#181 = PERSON_AND_ORGANIZATION_ROLE ( 'creator' ) ;
#182 = PRODUCT ( '966005', '966005', '', ( #27 ) ) ;
#183 = CC_DESIGN_DATE_AND_TIME_ASSIGNMENT ( #94, #197, ( #71 ) ) ;
#184 = DIRECTION ( 'NONE',  ( -3.491481338843133355E-15, 0.000000000000000000, -1.000000000000000000 ) ) ;
#185 = AXIS2_PLACEMENT_3D ( 'NONE', #201, #74, #155 ) ;
#186 = DIRECTION ( 'NONE',  ( 1.000000000000000000, 0.000000000000000000, -5.782411586589357244E-15 ) ) ;
#187 = EDGE_LOOP ( 'NONE', ( #86 ) ) ;
#188 = ORIENTED_EDGE ( 'NONE', *, *, #24, .F. ) ;
#189 = CYLINDRICAL_SURFACE ( 'NONE', #16, 1.499999999999998002 ) ;
#190 = CARTESIAN_POINT ( 'NONE',  ( 1.326762908760390423E-13, 0.000000000000000000, 38.00000000000000000 ) ) ;
#191 = FACE_OUTER_BOUND ( 'NONE', #105, .T. ) ;
#192 = LOCAL_TIME ( 7, 43, 26.00000000000000000, #3 ) ;
#193 = ADVANCED_BREP_SHAPE_REPRESENTATION ( '966005', ( #165, #185 ), #124 ) ;
#194 = CARTESIAN_POINT ( 'NONE',  ( 8.645144319880447645E-16, 0.000000000000000000, 0.2476067743425180989 ) ) ;
#195 = APPROVAL ( #264, 'UNSPECIFIED' ) ;
#196 = COORDINATED_UNIVERSAL_TIME_OFFSET ( 1, 0, .AHEAD. ) ;
#197 = DATE_TIME_ROLE ( 'classification_date' ) ;
#198 = PERSON_AND_ORGANIZATION ( #87, #275 ) ;
#199 = ADVANCED_FACE ( 'NONE', ( #255, #233 ), #249, .T. ) ;
#200 = CARTESIAN_POINT ( 'NONE',  ( 1.500000000000127676, 0.000000000000000000, 37.69999999999998863 ) ) ;
#201 = CARTESIAN_POINT ( 'NONE',  ( 0.000000000000000000, 0.000000000000000000, 0.000000000000000000 ) ) ;
#202 = AXIS2_PLACEMENT_3D ( 'NONE', #130, #217, #170 ) ;
#203 = VERTEX_POINT ( 'NONE', #200 ) ;
#204 = EDGE_CURVE ( 'NONE', #55, #55, #139, .T. ) ;
#205 = DIRECTION ( 'NONE',  ( 1.000000000000000000, 0.000000000000000000, 0.000000000000000000 ) ) ;
#206 = EDGE_LOOP ( 'NONE', ( #188 ) ) ;
#207 = CIRCLE ( 'NONE', #263, 0.8340741737109290677 ) ;
#208 = EDGE_LOOP ( 'NONE', ( #37 ) ) ;
#209 = FACE_OUTER_BOUND ( 'NONE', #187, .T. ) ;
#210 = CC_DESIGN_PERSON_AND_ORGANIZATION_ASSIGNMENT ( #198, #50, ( #182 ) ) ;
#211 = ORIENTED_EDGE ( 'NONE', *, *, #163, .F. ) ;
#212 = EDGE_LOOP ( 'NONE', ( #14 ) ) ;
#213 = ADVANCED_FACE ( 'NONE', ( #149 ), #237, .F. ) ;
#214 = CARTESIAN_POINT ( 'NONE',  ( 8.063230763406655524E-16, 0.000000000000000000, 0.2309401076758532678 ) ) ;
#215 = FACE_OUTER_BOUND ( 'NONE', #206, .T. ) ;
#216 = CC_DESIGN_APPROVAL ( #1, ( #147 ) ) ;
#217 = DIRECTION ( 'NONE',  ( -3.491481338843133355E-15, 0.000000000000000000, -1.000000000000000000 ) ) ;
#218 = PERSON_AND_ORGANIZATION_ROLE ( 'creator' ) ;
#219 = EDGE_CURVE ( 'NONE', #265, #265, #136, .T. ) ;
#220 = TOROIDAL_SURFACE ( 'NONE', #266, 1.799999999999999156, 1.000000000000000000 ) ;
#221 = DATE_AND_TIME ( #262, #61 ) ;
#222 = VERTEX_POINT ( 'NONE', #30 ) ;
#223 = DIRECTION ( 'NONE',  ( 3.491481338843133355E-15, -0.000000000000000000, 1.000000000000000000 ) ) ;
#224 = CIRCLE ( 'NONE', #90, 1.499999999999996225 ) ;
#225 = CC_DESIGN_DATE_AND_TIME_ASSIGNMENT ( #77, #173, ( #147 ) ) ;
#226 = CYLINDRICAL_SURFACE ( 'NONE', #69, 1.199999999999999956 ) ;
#227 = DIRECTION ( 'NONE',  ( 1.000000000000000000, 0.000000000000000000, -3.523657060577889805E-15 ) ) ;
#228 = ORIENTED_EDGE ( 'NONE', *, *, #247, .T. ) ;
#229 = ADVANCED_FACE ( 'NONE', ( #78, #4 ), #113, .T. ) ;
#230 = EDGE_LOOP ( 'NONE', ( #56 ) ) ;
#231 = APPROVAL_DATE_TIME ( #256, #1 ) ;
#232 = DIRECTION ( 'NONE',  ( 3.491481338843133355E-15, -0.000000000000000000, 1.000000000000000000 ) ) ;
#233 = FACE_OUTER_BOUND ( 'NONE', #269, .T. ) ;
#234 = CALENDAR_DATE ( 2023, 27, 9 ) ;
#235 = CC_DESIGN_PERSON_AND_ORGANIZATION_ASSIGNMENT ( #131, #218, ( #147 ) ) ;
#236 = AXIS2_PLACEMENT_3D ( 'NONE', #214, #172, #119 ) ;
#237 = PLANE ( 'NONE',  #44 ) ;
#238 = CIRCLE ( 'NONE', #177, 1.199999999999993072 ) ;
#239 = SHAPE_DEFINITION_REPRESENTATION ( #179, #193 ) ;
#240 = CARTESIAN_POINT ( 'NONE',  ( 1.200000000000000844, 0.000000000000000000, 0.2476067743425139356 ) ) ;
#241 = DATE_AND_TIME ( #260, #270 ) ;
#242 = CARTESIAN_POINT ( 'NONE',  ( 1.200000000000125855, 0.000000000000000000, 37.99999999999999289 ) ) ;
#243 = DESIGN_CONTEXT ( 'detailed design', #13, 'design' ) ;
#244 = FACE_OUTER_BOUND ( 'NONE', #230, .T. ) ;
#245 = CONICAL_SURFACE ( 'NONE', #48, 0.7999999999999997113, 1.047197551196592302 ) ;
#246 = CARTESIAN_POINT ( 'NONE',  ( 8.645144319880447645E-16, 0.000000000000000000, 0.2476067743425180989 ) ) ;
#247 = EDGE_CURVE ( 'NONE', #72, #72, #25, .T. ) ;
#248 = EDGE_LOOP ( 'NONE', ( #103 ) ) ;
#249 = CONICAL_SURFACE ( 'NONE', #202, 1.499999999999996225, 0.7853981633974504994 ) ;
#250 = DIRECTION ( 'NONE',  ( 3.491481338843133355E-15, -0.000000000000000000, 1.000000000000000000 ) ) ;
#251 = APPROVAL ( #133, 'UNSPECIFIED' ) ;
#252 = DIRECTION ( 'NONE',  ( 3.491481338843133355E-15, -0.000000000000000000, 1.000000000000000000 ) ) ;
#253 = ORIENTED_EDGE ( 'NONE', *, *, #57, .F. ) ;
#254 = PLANE ( 'NONE',  #106 ) ;
#255 = FACE_BOUND ( 'NONE', #273, .T. ) ;
#256 = DATE_AND_TIME ( #234, #93 ) ;
#257 = EDGE_CURVE ( 'NONE', #53, #53, #22, .T. ) ;
#258 = CARTESIAN_POINT ( 'NONE',  ( 3.023210511239495863E-14, 0.000000000000000000, 8.658819045102516654 ) ) ;
#259 = AXIS2_PLACEMENT_3D ( 'NONE', #258, #232, #42 ) ;
#260 = CALENDAR_DATE ( 2023, 27, 9 ) ;
#261 = APPLICATION_PROTOCOL_DEFINITION ( 'international standard', 'config_control_design', 1994, #145 ) ;
#262 = CALENDAR_DATE ( 2023, 27, 9 ) ;
#263 = AXIS2_PLACEMENT_3D ( 'NONE', #85, #252, #164 ) ;
#264 = APPROVAL_STATUS ( 'not_yet_approved' ) ;
#265 = VERTEX_POINT ( 'NONE', #175 ) ;
#266 = AXIS2_PLACEMENT_3D ( 'NONE', #88, #64, #169 ) ;
#267 = CARTESIAN_POINT ( 'NONE',  ( 3.890937550998986670E-14, 0.000000000000000000, 11.14408806288567888 ) ) ;
#268 = ORIENTED_EDGE ( 'NONE', *, *, #204, .F. ) ;
#269 = EDGE_LOOP ( 'NONE', ( #60 ) ) ;
#270 = LOCAL_TIME ( 7, 43, 26.00000000000000000, #196 ) ;
#271 = DIRECTION ( 'NONE',  ( 3.491481338843133355E-15, -0.000000000000000000, 1.000000000000000000 ) ) ;
#272 = ADVANCED_FACE ( 'NONE', ( #54, #244 ), #32, .T. ) ;
#273 = EDGE_LOOP ( 'NONE', ( #211 ) ) ;
#274 = FACE_OUTER_BOUND ( 'NONE', #208, .T. ) ;
#275 = ORGANIZATION ( 'UNSPECIFIED', 'UNSPECIFIED', '' ) ;
ENDSEC;
END-ISO-10303-21;
