ISO-10303-21;
HEADER;
FILE_DESCRIPTION (( 'STEP AP203' ),
    '1' );
FILE_NAME ('966004.step',
    '2023-09-27T05:43:26',
    ( '' ),
    ( '' ),
    'SwSTEP 2.0',
    'SolidWorks 2022',
    '' );
FILE_SCHEMA (( 'CONFIG_CONTROL_DESIGN' ));
ENDSEC;

DATA;
#1 = CYLINDRICAL_SURFACE ( 'NONE', #10, 0.9849999999999999867 ) ;
#2 = CARTESIAN_POINT ( 'NONE',  ( 1.500000000000127676, 0.000000000000000000, 37.69999999999998863 ) ) ;
#3 = CARTESIAN_POINT ( 'NONE',  ( 1.670837508328685961E-15, 0.000000000000000000, 0.4785468820183644278 ) ) ;
#4 = CC_DESIGN_PERSON_AND_ORGANIZATION_ASSIGNMENT ( #70, #73, ( #160 ) ) ;
#5 = AXIS2_PLACEMENT_3D ( 'NONE', #59, #243, #36 ) ;
#6 = MECHANICAL_CONTEXT ( 'NONE', #104, 'mechanical' ) ;
#7 = CALENDAR_DATE ( 2023, 27, 9 ) ;
#8 = CALENDAR_DATE ( 2023, 27, 9 ) ;
#9 = EDGE_LOOP ( 'NONE', ( #89 ) ) ;
#10 = AXIS2_PLACEMENT_3D ( 'NONE', #105, #205, #151 ) ;
#11 = ADVANCED_FACE ( 'NONE', ( #76, #141 ), #66, .T. ) ;
#12 = PERSON_AND_ORGANIZATION ( #272, #195 ) ;
#13 = DIRECTION ( 'NONE',  ( 1.000000000000000000, 0.000000000000000000, -2.802125415082846641E-15 ) ) ;
#14 = AXIS2_PLACEMENT_3D ( 'NONE', #75, #97, #158 ) ;
#15 = DIRECTION ( 'NONE',  ( 1.000000000000000000, 0.000000000000000000, -3.469446951953614189E-15 ) ) ;
#16 = FACE_OUTER_BOUND ( 'NONE', #137, .T. ) ;
#17 = CARTESIAN_POINT ( 'NONE',  ( 2.444036937190193033E-14, 0.000000000000000000, 6.999999999999999112 ) ) ;
#18 = AXIS2_PLACEMENT_3D ( 'NONE', #221, #138, #194 ) ;
#19 = ORIENTED_EDGE ( 'NONE', *, *, #85, .T. ) ;
#20 = FACE_OUTER_BOUND ( 'NONE', #259, .T. ) ;
#21 =( LENGTH_UNIT ( ) NAMED_UNIT ( * ) SI_UNIT ( .MILLI., .METRE. ) );
#22 = ADVANCED_FACE ( 'NONE', ( #119, #245 ), #271, .T. ) ;
#23 = CARTESIAN_POINT ( 'NONE',  ( 0.000000000000000000, 0.000000000000000000, 0.000000000000000000 ) ) ;
#24 = CIRCLE ( 'NONE', #126, 0.6190741737109289877 ) ;
#25 = AXIS2_PLACEMENT_3D ( 'NONE', #57, #115, #15 ) ;
#26 = DIRECTION ( 'NONE',  ( 3.491481338843133355E-15, -0.000000000000000000, 1.000000000000000000 ) ) ;
#27 = DIRECTION ( 'NONE',  ( 1.000000000000000000, 0.000000000000000000, -3.491481338843133355E-15 ) ) ;
#28 = DATE_TIME_ROLE ( 'creation_date' ) ;
#29 = APPROVAL_ROLE ( '' ) ;
#30 = EDGE_CURVE ( 'NONE', #229, #229, #140, .T. ) ;
#31 = LOCAL_TIME ( 7, 43, 26.00000000000000000, #109 ) ;
#32 = APPROVAL_STATUS ( 'not_yet_approved' ) ;
#33 = APPROVAL ( #32, 'UNSPECIFIED' ) ;
#34 = ORIENTED_EDGE ( 'NONE', *, *, #82, .F. ) ;
#35 = CIRCLE ( 'NONE', #103, 0.5849999999999999645 ) ;
#36 = DIRECTION ( 'NONE',  ( 1.000000000000000000, 0.000000000000000000, -3.491481338843133355E-15 ) ) ;
#37 = FACE_BOUND ( 'NONE', #263, .T. ) ;
#38 = ADVANCED_FACE ( 'NONE', ( #37, #145 ), #227, .T. ) ;
#39 = ORIENTED_EDGE ( 'NONE', *, *, #242, .T. ) ;
#40 = DIRECTION ( 'NONE',  ( 3.491481338843133355E-15, -0.000000000000000000, 1.000000000000000000 ) ) ;
#41 = FACE_OUTER_BOUND ( 'NONE', #58, .T. ) ;
#42 = DIRECTION ( 'NONE',  ( 3.491481338843133355E-15, -0.000000000000000000, 1.000000000000000000 ) ) ;
#43 = VERTEX_POINT ( 'NONE', #102 ) ;
#44 = APPROVAL_PERSON_ORGANIZATION ( #46, #134, #153 ) ;
#45 = CARTESIAN_POINT ( 'NONE',  ( 0.9850000000000008749, 0.000000000000000000, 0.2309401076758498261 ) ) ;
#46 = PERSON_AND_ORGANIZATION ( #272, #195 ) ;
#47 =( GEOMETRIC_REPRESENTATION_CONTEXT ( 3 ) GLOBAL_UNCERTAINTY_ASSIGNED_CONTEXT ( ( #51 ) ) GLOBAL_UNIT_ASSIGNED_CONTEXT ( ( #21, #230, #226 ) ) REPRESENTATION_CONTEXT ( 'NONE', 'WORKASPACE' ) );
#48 = SHAPE_DEFINITION_REPRESENTATION ( #183, #63 ) ;
#49 = EDGE_LOOP ( 'NONE', ( #154 ) ) ;
#50 = CC_DESIGN_APPROVAL ( #134, ( #160 ) ) ;
#51 = UNCERTAINTY_MEASURE_WITH_UNIT (LENGTH_MEASURE( 1.000000000000000082E-05 ), #21, 'distance_accuracy_value', 'NONE');
#52 = DIRECTION ( 'NONE',  ( 3.491481338843133355E-15, -0.000000000000000000, 1.000000000000000000 ) ) ;
#53 = AXIS2_PLACEMENT_3D ( 'NONE', #198, #200, #81 ) ;
#54 = DIRECTION ( 'NONE',  ( 3.491481338843133355E-15, -0.000000000000000000, 1.000000000000000000 ) ) ;
#55 = PRODUCT_DEFINITION ( 'UNKNOWN', '', #209, #240 ) ;
#56 = ORIENTED_EDGE ( 'NONE', *, *, #82, .T. ) ;
#57 = CARTESIAN_POINT ( 'NONE',  ( 3.682283457191141037E-14, 0.000000000000000000, 10.54647898651300864 ) ) ;
#58 = EDGE_LOOP ( 'NONE', ( #19 ) ) ;
#59 = CARTESIAN_POINT ( 'NONE',  ( 2.444036937190193349E-14, 0.000000000000000000, 7.000000000000000000 ) ) ;
#60 = DIRECTION ( 'NONE',  ( 1.000000000000000000, 0.000000000000000000, -3.491481338843133355E-15 ) ) ;
#61 = CARTESIAN_POINT ( 'NONE',  ( 1.316288464743861212E-13, 0.000000000000000000, 37.69999999999999574 ) ) ;
#62 = CC_DESIGN_APPROVAL ( #33, ( #55 ) ) ;
#63 = ADVANCED_BREP_SHAPE_REPRESENTATION ( '966004', ( #135, #237 ), #47 ) ;
#64 = VERTEX_POINT ( 'NONE', #148 ) ;
#65 = CARTESIAN_POINT ( 'NONE',  ( 0.9850000000000008749, 0.000000000000000000, 0.2476067743425146850 ) ) ;
#66 = CONICAL_SURFACE ( 'NONE', #136, 0.6190741737109289877, 0.2617993877991429685 ) ;
#67 = ADVANCED_FACE ( 'NONE', ( #122 ), #173, .F. ) ;
#68 = VERTEX_POINT ( 'NONE', #65 ) ;
#69 = APPROVAL_DATE_TIME ( #168, #192 ) ;
#70 = PERSON_AND_ORGANIZATION ( #272, #195 ) ;
#71 = AXIS2_PLACEMENT_3D ( 'NONE', #197, #54, #268 ) ;
#72 = DATE_AND_TIME ( #193, #31 ) ;
#73 = PERSON_AND_ORGANIZATION_ROLE ( 'classification_officer' ) ;
#74 = EDGE_LOOP ( 'NONE', ( #178 ) ) ;
#75 = CARTESIAN_POINT ( 'NONE',  ( 1.326762908760390423E-13, 0.000000000000000000, 38.00000000000000000 ) ) ;
#76 = FACE_OUTER_BOUND ( 'NONE', #220, .T. ) ;
#77 = ADVANCED_FACE ( 'NONE', ( #95, #241 ), #169, .F. ) ;
#78 = CIRCLE ( 'NONE', #112, 0.9849999999999999867 ) ;
#79 = FACE_BOUND ( 'NONE', #175, .T. ) ;
#80 = ORIENTED_EDGE ( 'NONE', *, *, #106, .T. ) ;
#81 = DIRECTION ( 'NONE',  ( 1.000000000000000000, 0.000000000000000000, -5.782411586589390376E-15 ) ) ;
#82 = EDGE_CURVE ( 'NONE', #108, #108, #24, .T. ) ;
#83 = DIRECTION ( 'NONE',  ( 1.000000000000000000, 0.000000000000000000, -2.965339275174033280E-15 ) ) ;
#84 = CARTESIAN_POINT ( 'NONE',  ( 0.5849999999999998535, 0.000000000000000000, -2.042516583223232540E-15 ) ) ;
#85 = EDGE_CURVE ( 'NONE', #43, #43, #157, .T. ) ;
#86 = DIRECTION ( 'NONE',  ( 1.000000000000000000, 0.000000000000000000, -3.521340389269159886E-15 ) ) ;
#87 = PLANE ( 'NONE',  #223 ) ;
#88 = CALENDAR_DATE ( 2023, 27, 9 ) ;
#89 = ORIENTED_EDGE ( 'NONE', *, *, #262, .F. ) ;
#90 = AXIS2_PLACEMENT_3D ( 'NONE', #161, #250, #60 ) ;
#91 = PERSON_AND_ORGANIZATION_ROLE ( 'design_owner' ) ;
#92 = DATE_AND_TIME ( #8, #270 ) ;
#93 = CC_DESIGN_PERSON_AND_ORGANIZATION_ASSIGNMENT ( #156, #260, ( #209 ) ) ;
#94 = APPROVAL_PERSON_ORGANIZATION ( #211, #192, #130 ) ;
#95 = FACE_OUTER_BOUND ( 'NONE', #202, .T. ) ;
#96 = DIRECTION ( 'NONE',  ( -1.000000000000000000, 0.000000000000000000, 4.625929269271497155E-15 ) ) ;
#97 = DIRECTION ( 'NONE',  ( 3.491481338843133355E-15, -0.000000000000000000, 1.000000000000000000 ) ) ;
#98 = CONICAL_SURFACE ( 'NONE', #201, 0.9849999999999999867, 1.047197551196605181 ) ;
#99 = CARTESIAN_POINT ( 'NONE',  ( 8.063230763406655524E-16, 0.000000000000000000, 0.2309401076758532678 ) ) ;
#100 = ORIENTED_EDGE ( 'NONE', *, *, #242, .F. ) ;
#101 = ORIENTED_EDGE ( 'NONE', *, *, #262, .T. ) ;
#102 = CARTESIAN_POINT ( 'NONE',  ( 1.200000000000125855, 0.000000000000000000, 37.99999999999999289 ) ) ;
#103 = AXIS2_PLACEMENT_3D ( 'NONE', #3, #26, #86 ) ;
#104 = APPLICATION_CONTEXT ( 'configuration controlled 3d designs of mechanical parts and assemblies' ) ;
#105 = CARTESIAN_POINT ( 'NONE',  ( 1.326762908760390423E-13, 0.000000000000000000, 38.00000000000000000 ) ) ;
#106 = EDGE_CURVE ( 'NONE', #184, #184, #206, .T. ) ;
#107 = FACE_OUTER_BOUND ( 'NONE', #215, .T. ) ;
#108 = VERTEX_POINT ( 'NONE', #129 ) ;
#109 = COORDINATED_UNIVERSAL_TIME_OFFSET ( 1, 0, .AHEAD. ) ;
#110 = APPROVAL_STATUS ( 'not_yet_approved' ) ;
#111 = ORIENTED_EDGE ( 'NONE', *, *, #85, .F. ) ;
#112 = AXIS2_PLACEMENT_3D ( 'NONE', #254, #42, #123 ) ;
#113 = PERSON_AND_ORGANIZATION ( #272, #195 ) ;
#114 = DATE_AND_TIME ( #7, #177 ) ;
#115 = DIRECTION ( 'NONE',  ( 3.491481338843133355E-15, -0.000000000000000000, 1.000000000000000000 ) ) ;
#116 = DIRECTION ( 'NONE',  ( 3.491481338843133355E-15, -0.000000000000000000, 1.000000000000000000 ) ) ;
#117 = CC_DESIGN_APPROVAL ( #192, ( #209 ) ) ;
#118 = ORIENTED_EDGE ( 'NONE', *, *, #150, .T. ) ;
#119 = FACE_OUTER_BOUND ( 'NONE', #49, .T. ) ;
#120 = CARTESIAN_POINT ( 'NONE',  ( 2.534403123801456562E-14, 0.000000000000000000, 7.258819045102515410 ) ) ;
#121 = CIRCLE ( 'NONE', #165, 0.9849999999999999867 ) ;
#122 = FACE_OUTER_BOUND ( 'NONE', #188, .T. ) ;
#123 = DIRECTION ( 'NONE',  ( 1.000000000000000000, 0.000000000000000000, -3.467245526222679285E-15 ) ) ;
#124 = VERTEX_POINT ( 'NONE', #2 ) ;
#125 = CC_DESIGN_PERSON_AND_ORGANIZATION_ASSIGNMENT ( #225, #91, ( #235 ) ) ;
#126 = AXIS2_PLACEMENT_3D ( 'NONE', #120, #224, #203 ) ;
#127 = DIRECTION ( 'NONE',  ( 1.000000000000000000, 0.000000000000000000, -4.625929269271497155E-15 ) ) ;
#128 = APPLICATION_PROTOCOL_DEFINITION ( 'international standard', 'config_control_design', 1994, #104 ) ;
#129 = CARTESIAN_POINT ( 'NONE',  ( 0.6190741737109543008, 0.000000000000000000, 7.258819045102513634 ) ) ;
#130 = APPROVAL_ROLE ( '' ) ;
#131 = COORDINATED_UNIVERSAL_TIME_OFFSET ( 1, 0, .AHEAD. ) ;
#132 = COORDINATED_UNIVERSAL_TIME_OFFSET ( 1, 0, .AHEAD. ) ;
#133 = ORIENTED_EDGE ( 'NONE', *, *, #257, .F. ) ;
#134 = APPROVAL ( #217, 'UNSPECIFIED' ) ;
#135 = MANIFOLD_SOLID_BREP ( 'Corps-Déplacer/Copier1', #139 ) ;
#136 = AXIS2_PLACEMENT_3D ( 'NONE', #174, #52, #13 ) ;
#137 = EDGE_LOOP ( 'NONE', ( #222 ) ) ;
#138 = DIRECTION ( 'NONE',  ( 3.491481338843133355E-15, -0.000000000000000000, 1.000000000000000000 ) ) ;
#139 = CLOSED_SHELL ( 'NONE', ( #67, #199, #273, #204, #22, #38, #248, #77, #11, #170 ) ) ;
#140 = CIRCLE ( 'NONE', #25, 1.500000000000000000 ) ;
#141 = FACE_BOUND ( 'NONE', #162, .T. ) ;
#142 = DIRECTION ( 'NONE',  ( -3.491481338843133355E-15, 0.000000000000000000, -1.000000000000000000 ) ) ;
#143 = APPLICATION_CONTEXT ( 'configuration controlled 3d designs of mechanical parts and assemblies' ) ;
#144 = EDGE_LOOP ( 'NONE', ( #80 ) ) ;
#145 = FACE_OUTER_BOUND ( 'NONE', #163, .T. ) ;
#146 = FACE_BOUND ( 'NONE', #9, .T. ) ;
#147 = CARTESIAN_POINT ( 'NONE',  ( 1.326762908760390423E-13, 1.199999999999993072, 38.00000000000000000 ) ) ;
#148 = CARTESIAN_POINT ( 'NONE',  ( 0.5850000000000016298, 0.000000000000000000, 0.4785468820183623739 ) ) ;
#149 = DIRECTION ( 'NONE',  ( -1.000000000000000000, 0.000000000000000000, 3.491481338843133355E-15 ) ) ;
#150 = EDGE_CURVE ( 'NONE', #182, #182, #121, .T. ) ;
#151 = DIRECTION ( 'NONE',  ( 1.000000000000000000, 0.000000000000000000, 0.000000000000000000 ) ) ;
#152 = SECURITY_CLASSIFICATION_LEVEL ( 'unclassified' ) ;
#153 = APPROVAL_ROLE ( '' ) ;
#154 = ORIENTED_EDGE ( 'NONE', *, *, #106, .F. ) ;
#155 = CIRCLE ( 'NONE', #181, 1.499999999999996225 ) ;
#156 = PERSON_AND_ORGANIZATION ( #272, #195 ) ;
#157 = CIRCLE ( 'NONE', #53, 1.199999999999993072 ) ;
#158 = DIRECTION ( 'NONE',  ( 1.000000000000000000, 0.000000000000000000, -4.625929269271491633E-15 ) ) ;
#159 = CARTESIAN_POINT ( 'NONE',  ( 1.316288464743861212E-13, 0.000000000000000000, 37.69999999999999574 ) ) ;
#160 = SECURITY_CLASSIFICATION ( '', '', #152 ) ;
#161 = CARTESIAN_POINT ( 'NONE',  ( 0.000000000000000000, 0.000000000000000000, 0.000000000000000000 ) ) ;
#162 = EDGE_LOOP ( 'NONE', ( #56 ) ) ;
#163 = EDGE_LOOP ( 'NONE', ( #247 ) ) ;
#164 = FACE_OUTER_BOUND ( 'NONE', #74, .T. ) ;
#165 = AXIS2_PLACEMENT_3D ( 'NONE', #99, #266, #179 ) ;
#166 = DIRECTION ( 'NONE',  ( -3.491481338843133355E-15, 0.000000000000000000, -1.000000000000000000 ) ) ;
#167 = CARTESIAN_POINT ( 'NONE',  ( 0.5850000000000235012, 0.000000000000000000, 6.999999999999997335 ) ) ;
#168 = DATE_AND_TIME ( #88, #252 ) ;
#169 = TOROIDAL_SURFACE ( 'NONE', #5, 1.584999999999999076, 1.000000000000000000 ) ;
#170 = ADVANCED_FACE ( 'NONE', ( #16, #269 ), #274, .T. ) ;
#171 = APPLICATION_PROTOCOL_DEFINITION ( 'international standard', 'config_control_design', 1994, #143 ) ;
#172 = APPROVAL_PERSON_ORGANIZATION ( #214, #33, #29 ) ;
#173 = PLANE ( 'NONE',  #18 ) ;
#174 = CARTESIAN_POINT ( 'NONE',  ( 2.534403123801456562E-14, 0.000000000000000000, 7.258819045102515410 ) ) ;
#175 = EDGE_LOOP ( 'NONE', ( #39 ) ) ;
#176 = CC_DESIGN_PERSON_AND_ORGANIZATION_ASSIGNMENT ( #113, #212, ( #209 ) ) ;
#177 = LOCAL_TIME ( 7, 43, 26.00000000000000000, #131 ) ;
#178 = ORIENTED_EDGE ( 'NONE', *, *, #150, .F. ) ;
#179 = DIRECTION ( 'NONE',  ( 1.000000000000000000, 0.000000000000000000, -3.494763347859366968E-15 ) ) ;
#180 = CARTESIAN_POINT ( 'NONE',  ( 0.000000000000000000, 0.000000000000000000, 0.000000000000000000 ) ) ;
#181 = AXIS2_PLACEMENT_3D ( 'NONE', #61, #116, #127 ) ;
#182 = VERTEX_POINT ( 'NONE', #45 ) ;
#183 = PRODUCT_DEFINITION_SHAPE ( 'NONE', 'NONE',  #55 ) ;
#184 = VERTEX_POINT ( 'NONE', #167 ) ;
#185 = DIRECTION ( 'NONE',  ( 3.491481338843133355E-15, -0.000000000000000000, 1.000000000000000000 ) ) ;
#186 = AXIS2_PLACEMENT_3D ( 'NONE', #159, #142, #96 ) ;
#187 = APPROVAL_DATE_TIME ( #236, #134 ) ;
#188 = EDGE_LOOP ( 'NONE', ( #100 ) ) ;
#189 = PRODUCT_RELATED_PRODUCT_CATEGORY ( 'detail', '', ( #235 ) ) ;
#190 = COORDINATED_UNIVERSAL_TIME_OFFSET ( 1, 0, .AHEAD. ) ;
#191 = AXIS2_PLACEMENT_3D ( 'NONE', #23, #185, #27 ) ;
#192 = APPROVAL ( #110, 'UNSPECIFIED' ) ;
#193 = CALENDAR_DATE ( 2023, 27, 9 ) ;
#194 = DIRECTION ( 'NONE',  ( 1.000000000000000000, 0.000000000000000000, -3.491481338843133355E-15 ) ) ;
#195 = ORGANIZATION ( 'UNSPECIFIED', 'UNSPECIFIED', '' ) ;
#196 = LOCAL_TIME ( 7, 43, 26.00000000000000000, #132 ) ;
#197 = CARTESIAN_POINT ( 'NONE',  ( 1.326762908760390423E-13, 0.000000000000000000, 38.00000000000000000 ) ) ;
#198 = CARTESIAN_POINT ( 'NONE',  ( 1.326762908760390423E-13, 0.000000000000000000, 38.00000000000000000 ) ) ;
#199 = ADVANCED_FACE ( 'NONE', ( #164, #79 ), #216, .T. ) ;
#200 = DIRECTION ( 'NONE',  ( 3.491481338843133355E-15, -0.000000000000000000, 1.000000000000000000 ) ) ;
#201 = AXIS2_PLACEMENT_3D ( 'NONE', #239, #251, #246 ) ;
#202 = EDGE_LOOP ( 'NONE', ( #34 ) ) ;
#203 = DIRECTION ( 'NONE',  ( 1.000000000000000000, 0.000000000000000000, -2.802125415082846641E-15 ) ) ;
#204 = ADVANCED_FACE ( 'NONE', ( #146, #20 ), #98, .T. ) ;
#205 = DIRECTION ( 'NONE',  ( 3.491481338843133355E-15, -0.000000000000000000, 1.000000000000000000 ) ) ;
#206 = CIRCLE ( 'NONE', #265, 0.5849999999999991873 ) ;
#207 = CC_DESIGN_SECURITY_CLASSIFICATION ( #160, ( #209 ) ) ;
#208 = FACE_OUTER_BOUND ( 'NONE', #249, .T. ) ;
#209 = PRODUCT_DEFINITION_FORMATION_WITH_SPECIFIED_SOURCE ( 'ANY', '', #235, .NOT_KNOWN. ) ;
#210 = COORDINATED_UNIVERSAL_TIME_OFFSET ( 1, 0, .AHEAD. ) ;
#211 = PERSON_AND_ORGANIZATION ( #272, #195 ) ;
#212 = PERSON_AND_ORGANIZATION_ROLE ( 'creator' ) ;
#213 = ORIENTED_EDGE ( 'NONE', *, *, #257, .T. ) ;
#214 = PERSON_AND_ORGANIZATION ( #272, #195 ) ;
#215 = EDGE_LOOP ( 'NONE', ( #118 ) ) ;
#216 = CONICAL_SURFACE ( 'NONE', #90, 0.5849999999999998535, 1.047197551196592302 ) ;
#217 = APPROVAL_STATUS ( 'not_yet_approved' ) ;
#218 = EDGE_LOOP ( 'NONE', ( #101 ) ) ;
#219 = CC_DESIGN_PERSON_AND_ORGANIZATION_ASSIGNMENT ( #12, #234, ( #55 ) ) ;
#220 = EDGE_LOOP ( 'NONE', ( #244 ) ) ;
#221 = CARTESIAN_POINT ( 'NONE',  ( 0.000000000000000000, 0.000000000000000000, 0.000000000000000000 ) ) ;
#222 = ORIENTED_EDGE ( 'NONE', *, *, #232, .F. ) ;
#223 = AXIS2_PLACEMENT_3D ( 'NONE', #147, #166, #149 ) ;
#224 = DIRECTION ( 'NONE',  ( 3.491481338843133355E-15, -0.000000000000000000, 1.000000000000000000 ) ) ;
#225 = PERSON_AND_ORGANIZATION ( #272, #195 ) ;
#226 =( NAMED_UNIT ( * ) SI_UNIT ( $, .STERADIAN. ) SOLID_ANGLE_UNIT ( ) );
#227 = CONICAL_SURFACE ( 'NONE', #186, 1.499999999999996225, 0.7853981633974504994 ) ;
#228 = CC_DESIGN_DATE_AND_TIME_ASSIGNMENT ( #92, #28, ( #55 ) ) ;
#229 = VERTEX_POINT ( 'NONE', #256 ) ;
#230 =( NAMED_UNIT ( * ) PLANE_ANGLE_UNIT ( ) SI_UNIT ( $, .RADIAN. ) );
#231 = APPROVAL_DATE_TIME ( #114, #33 ) ;
#232 = EDGE_CURVE ( 'NONE', #124, #124, #155, .T. ) ;
#233 = CIRCLE ( 'NONE', #191, 0.5849999999999998535 ) ;
#234 = PERSON_AND_ORGANIZATION_ROLE ( 'creator' ) ;
#235 = PRODUCT ( '966004', '966004', '', ( #6 ) ) ;
#236 = DATE_AND_TIME ( #261, #196 ) ;
#237 = AXIS2_PLACEMENT_3D ( 'NONE', #180, #275, #255 ) ;
#238 = EDGE_LOOP ( 'NONE', ( #264 ) ) ;
#239 = CARTESIAN_POINT ( 'NONE',  ( 8.645144319880447645E-16, 0.000000000000000000, 0.2476067743425180989 ) ) ;
#240 = DESIGN_CONTEXT ( 'detailed design', #143, 'design' ) ;
#241 = FACE_OUTER_BOUND ( 'NONE', #144, .T. ) ;
#242 = EDGE_CURVE ( 'NONE', #253, #253, #233, .T. ) ;
#243 = DIRECTION ( 'NONE',  ( 3.491481338843133355E-15, -0.000000000000000000, 1.000000000000000000 ) ) ;
#244 = ORIENTED_EDGE ( 'NONE', *, *, #30, .F. ) ;
#245 = FACE_OUTER_BOUND ( 'NONE', #218, .T. ) ;
#246 = DIRECTION ( 'NONE',  ( -1.000000000000000000, 0.000000000000000000, 3.467245526222679285E-15 ) ) ;
#247 = ORIENTED_EDGE ( 'NONE', *, *, #232, .T. ) ;
#248 = ADVANCED_FACE ( 'NONE', ( #41 ), #87, .F. ) ;
#249 = EDGE_LOOP ( 'NONE', ( #133 ) ) ;
#250 = DIRECTION ( 'NONE',  ( 3.491481338843133355E-15, -0.000000000000000000, 1.000000000000000000 ) ) ;
#251 = DIRECTION ( 'NONE',  ( -3.491481338843133355E-15, 0.000000000000000000, -1.000000000000000000 ) ) ;
#252 = LOCAL_TIME ( 7, 43, 26.00000000000000000, #190 ) ;
#253 = VERTEX_POINT ( 'NONE', #84 ) ;
#254 = CARTESIAN_POINT ( 'NONE',  ( 8.645144319880447645E-16, 0.000000000000000000, 0.2476067743425180989 ) ) ;
#255 = DIRECTION ( 'NONE',  ( 1.000000000000000000, 0.000000000000000000, 0.000000000000000000 ) ) ;
#256 = CARTESIAN_POINT ( 'NONE',  ( 1.500000000000036859, 0.000000000000000000, 10.54647898651300331 ) ) ;
#257 = EDGE_CURVE ( 'NONE', #68, #68, #78, .T. ) ;
#258 = DATE_TIME_ROLE ( 'classification_date' ) ;
#259 = EDGE_LOOP ( 'NONE', ( #213 ) ) ;
#260 = PERSON_AND_ORGANIZATION_ROLE ( 'design_supplier' ) ;
#261 = CALENDAR_DATE ( 2023, 27, 9 ) ;
#262 = EDGE_CURVE ( 'NONE', #64, #64, #35, .T. ) ;
#263 = EDGE_LOOP ( 'NONE', ( #111 ) ) ;
#264 = ORIENTED_EDGE ( 'NONE', *, *, #30, .T. ) ;
#265 = AXIS2_PLACEMENT_3D ( 'NONE', #17, #40, #83 ) ;
#266 = DIRECTION ( 'NONE',  ( 3.491481338843133355E-15, -0.000000000000000000, 1.000000000000000000 ) ) ;
#267 = CC_DESIGN_DATE_AND_TIME_ASSIGNMENT ( #72, #258, ( #160 ) ) ;
#268 = DIRECTION ( 'NONE',  ( 1.000000000000000000, 0.000000000000000000, 0.000000000000000000 ) ) ;
#269 = FACE_OUTER_BOUND ( 'NONE', #238, .T. ) ;
#270 = LOCAL_TIME ( 7, 43, 26.00000000000000000, #210 ) ;
#271 = CYLINDRICAL_SURFACE ( 'NONE', #71, 0.5849999999999996314 ) ;
#272 = PERSON ( 'UNSPECIFIED', 'UNSPECIFIED', 'UNSPECIFIED', ('UNSPECIFIED'), ('UNSPECIFIED'), ('UNSPECIFIED') ) ;
#273 = ADVANCED_FACE ( 'NONE', ( #208, #107 ), #1, .T. ) ;
#274 = CYLINDRICAL_SURFACE ( 'NONE', #14, 1.499999999999998002 ) ;
#275 = DIRECTION ( 'NONE',  ( 0.000000000000000000, 0.000000000000000000, 1.000000000000000000 ) ) ;
ENDSEC;
END-ISO-10303-21;
