ISO-10303-21;
HEADER;
FILE_DESCRIPTION (( 'STEP AP203' ),
    '1' );
FILE_NAME ('966003.step',
    '2023-09-27T05:43:25',
    ( '' ),
    ( '' ),
    'SwSTEP 2.0',
    'SolidWorks 2022',
    '' );
FILE_SCHEMA (( 'CONFIG_CONTROL_DESIGN' ));
ENDSEC;

DATA;
#1 = CARTESIAN_POINT ( 'NONE',  ( 1.665227270332016706E-15, 0.000000000000000000, 0.4769400459931349978 ) ) ;
#2 = APPROVAL ( #164, 'UNSPECIFIED' ) ;
#3 = DIRECTION ( 'NONE',  ( 3.491481338843133355E-15, -0.000000000000000000, 1.000000000000000000 ) ) ;
#4 = DIRECTION ( 'NONE',  ( 1.000000000000000000, 0.000000000000000000, -3.469446951953614189E-15 ) ) ;
#5 = DIRECTION ( 'NONE',  ( 1.000000000000000000, 0.000000000000000000, -3.505803431989056433E-15 ) ) ;
#6 = APPLICATION_CONTEXT ( 'configuration controlled 3d designs of mechanical parts and assemblies' ) ;
#7 = APPROVAL_ROLE ( '' ) ;
#8 = PERSON_AND_ORGANIZATION ( #224, #56 ) ;
#9 = CARTESIAN_POINT ( 'NONE',  ( 0.4740741737109517850, 0.000000000000000000, 6.458819045102514700 ) ) ;
#10 = PERSON_AND_ORGANIZATION ( #224, #56 ) ;
#11 = AXIS2_PLACEMENT_3D ( 'NONE', #263, #73, #179 ) ;
#12 = DIRECTION ( 'NONE',  ( -3.491481338843133355E-15, 0.000000000000000000, -1.000000000000000000 ) ) ;
#13 = CARTESIAN_POINT ( 'NONE',  ( 8.689832324456202497E-16, 0.000000000000000000, 0.2488866896632330183 ) ) ;
#14 = EDGE_LOOP ( 'NONE', ( #143 ) ) ;
#15 = DATE_AND_TIME ( #142, #99 ) ;
#16 = ORIENTED_EDGE ( 'NONE', *, *, #50, .F. ) ;
#17 = CARTESIAN_POINT ( 'NONE',  ( 1.316288464743861212E-13, 0.000000000000000000, 37.69999999999999574 ) ) ;
#18 = CC_DESIGN_DATE_AND_TIME_ASSIGNMENT ( #80, #242, ( #214 ) ) ;
#19 = FACE_OUTER_BOUND ( 'NONE', #207, .T. ) ;
#20 = CIRCLE ( 'NONE', #123, 1.499999999999996225 ) ;
#21 = FACE_OUTER_BOUND ( 'NONE', #40, .T. ) ;
#22 = DIRECTION ( 'NONE',  ( 1.000000000000000000, 0.000000000000000000, -3.449734185181150651E-15 ) ) ;
#23 = ADVANCED_FACE ( 'NONE', ( #122 ), #250, .F. ) ;
#24 = CARTESIAN_POINT ( 'NONE',  ( 7.962440378863963578E-16, 0.000000000000000000, 0.2280533563299019795 ) ) ;
#25 = FACE_BOUND ( 'NONE', #101, .T. ) ;
#26 = AXIS2_PLACEMENT_3D ( 'NONE', #225, #12, #34 ) ;
#27 = AXIS2_PLACEMENT_3D ( 'NONE', #1, #46, #22 ) ;
#28 = LOCAL_TIME ( 7, 43, 25.00000000000000000, #243 ) ;
#29 =( NAMED_UNIT ( * ) SI_UNIT ( $, .STERADIAN. ) SOLID_ANGLE_UNIT ( ) );
#30 = APPLICATION_PROTOCOL_DEFINITION ( 'international standard', 'config_control_design', 1994, #264 ) ;
#31 = ADVANCED_FACE ( 'NONE', ( #126, #205 ), #70, .T. ) ;
#32 = COORDINATED_UNIVERSAL_TIME_OFFSET ( 1, 0, .AHEAD. ) ;
#33 = AXIS2_PLACEMENT_3D ( 'NONE', #17, #43, #256 ) ;
#34 = DIRECTION ( 'NONE',  ( -1.000000000000000000, 0.000000000000000000, 3.491481338843133355E-15 ) ) ;
#35 = PERSON_AND_ORGANIZATION ( #224, #56 ) ;
#36 = ORIENTED_EDGE ( 'NONE', *, *, #160, .T. ) ;
#37 = ORIENTED_EDGE ( 'NONE', *, *, #124, .F. ) ;
#38 = APPROVAL_DATE_TIME ( #204, #244 ) ;
#39 = AXIS2_PLACEMENT_3D ( 'NONE', #258, #233, #235 ) ;
#40 = EDGE_LOOP ( 'NONE', ( #37 ) ) ;
#41 = CARTESIAN_POINT ( 'NONE',  ( 1.326762908760390423E-13, 0.000000000000000000, 38.00000000000000000 ) ) ;
#42 = EDGE_CURVE ( 'NONE', #158, #158, #261, .T. ) ;
#43 = DIRECTION ( 'NONE',  ( -3.491481338843133355E-15, 0.000000000000000000, -1.000000000000000000 ) ) ;
#44 = CARTESIAN_POINT ( 'NONE',  ( 0.000000000000000000, 0.000000000000000000, 0.000000000000000000 ) ) ;
#45 = CYLINDRICAL_SURFACE ( 'NONE', #203, 0.4399999999999997247 ) ;
#46 = DIRECTION ( 'NONE',  ( 3.491481338843133355E-15, -0.000000000000000000, 1.000000000000000000 ) ) ;
#47 = EDGE_CURVE ( 'NONE', #71, #71, #98, .T. ) ;
#48 =( LENGTH_UNIT ( ) NAMED_UNIT ( * ) SI_UNIT ( .MILLI., .METRE. ) );
#49 = CARTESIAN_POINT ( 'NONE',  ( 0.4400000000000210409, 0.000000000000000000, 6.199999999999995737 ) ) ;
#50 = EDGE_CURVE ( 'NONE', #139, #139, #106, .T. ) ;
#51 = CALENDAR_DATE ( 2023, 27, 9 ) ;
#52 = CARTESIAN_POINT ( 'NONE',  ( 0.000000000000000000, 0.000000000000000000, 0.000000000000000000 ) ) ;
#53 = EDGE_CURVE ( 'NONE', #221, #221, #153, .T. ) ;
#54 = APPROVAL_STATUS ( 'not_yet_approved' ) ;
#55 = ORIENTED_EDGE ( 'NONE', *, *, #168, .F. ) ;
#56 = ORGANIZATION ( 'UNSPECIFIED', 'UNSPECIFIED', '' ) ;
#57 = ORIENTED_EDGE ( 'NONE', *, *, #50, .T. ) ;
#58 = COORDINATED_UNIVERSAL_TIME_OFFSET ( 1, 0, .AHEAD. ) ;
#59 = EDGE_LOOP ( 'NONE', ( #108 ) ) ;
#60 = ORIENTED_EDGE ( 'NONE', *, *, #168, .T. ) ;
#61 = MANIFOLD_SOLID_BREP ( 'Corps-Déplacer/Copier1', #152 ) ;
#62 = FACE_BOUND ( 'NONE', #185, .T. ) ;
#63 = DIRECTION ( 'NONE',  ( 1.000000000000000000, 0.000000000000000000, 0.000000000000000000 ) ) ;
#64 = CARTESIAN_POINT ( 'NONE',  ( 1.316288464743861212E-13, 0.000000000000000000, 37.69999999999999574 ) ) ;
#65 =( GEOMETRIC_REPRESENTATION_CONTEXT ( 3 ) GLOBAL_UNCERTAINTY_ASSIGNED_CONTEXT ( ( #173 ) ) GLOBAL_UNIT_ASSIGNED_CONTEXT ( ( #48, #220, #29 ) ) REPRESENTATION_CONTEXT ( 'NONE', 'WORKASPACE' ) );
#66 = PRODUCT_DEFINITION ( 'UNKNOWN', '', #154, #249 ) ;
#67 = FACE_OUTER_BOUND ( 'NONE', #202, .T. ) ;
#68 = PERSON_AND_ORGANIZATION_ROLE ( 'creator' ) ;
#69 = ADVANCED_FACE ( 'NONE', ( #67, #113 ), #171, .F. ) ;
#70 = CONICAL_SURFACE ( 'NONE', #165, 0.8349999999999999645, 1.047197551196598075 ) ;
#71 = VERTEX_POINT ( 'NONE', #49 ) ;
#72 = PRODUCT ( '966003', '966003', '', ( #136 ) ) ;
#73 = DIRECTION ( 'NONE',  ( 3.491481338843133355E-15, -0.000000000000000000, 1.000000000000000000 ) ) ;
#74 = CC_DESIGN_PERSON_AND_ORGANIZATION_ASSIGNMENT ( #10, #230, ( #214 ) ) ;
#75 = DIRECTION ( 'NONE',  ( 1.000000000000000000, 0.000000000000000000, 0.000000000000000000 ) ) ;
#76 = EDGE_LOOP ( 'NONE', ( #145 ) ) ;
#77 = CALENDAR_DATE ( 2023, 27, 9 ) ;
#78 = ORIENTED_EDGE ( 'NONE', *, *, #160, .F. ) ;
#79 = CC_DESIGN_PERSON_AND_ORGANIZATION_ASSIGNMENT ( #265, #68, ( #66 ) ) ;
#80 = DATE_AND_TIME ( #77, #28 ) ;
#81 = ORIENTED_EDGE ( 'NONE', *, *, #53, .T. ) ;
#82 = ORIENTED_EDGE ( 'NONE', *, *, #42, .F. ) ;
#83 = CC_DESIGN_PERSON_AND_ORGANIZATION_ASSIGNMENT ( #118, #177, ( #72 ) ) ;
#84 = CONICAL_SURFACE ( 'NONE', #237, 0.4740741737109291920, 0.2617993877991429685 ) ;
#85 = DIRECTION ( 'NONE',  ( 3.491481338843133355E-15, -0.000000000000000000, 1.000000000000000000 ) ) ;
#86 = APPROVAL_PERSON_ORGANIZATION ( #8, #268, #7 ) ;
#87 = DIRECTION ( 'NONE',  ( 1.000000000000000000, 0.000000000000000000, -3.491481338843133355E-15 ) ) ;
#88 = DIRECTION ( 'NONE',  ( 3.491481338843133355E-15, -0.000000000000000000, 1.000000000000000000 ) ) ;
#89 = CARTESIAN_POINT ( 'NONE',  ( 3.591905543462192459E-14, 0.000000000000000000, 10.28762635361050926 ) ) ;
#90 = AXIS2_PLACEMENT_3D ( 'NONE', #133, #215, #116 ) ;
#91 = CARTESIAN_POINT ( 'NONE',  ( 1.326762908760390423E-13, 0.000000000000000000, 38.00000000000000000 ) ) ;
#92 = APPROVAL_STATUS ( 'not_yet_approved' ) ;
#93 = CARTESIAN_POINT ( 'NONE',  ( 1.500000000000035971, 0.000000000000000000, 10.28762635361050570 ) ) ;
#94 = DATE_AND_TIME ( #51, #262 ) ;
#95 = CYLINDRICAL_SURFACE ( 'NONE', #198, 1.499999999999998002 ) ;
#96 = EDGE_CURVE ( 'NONE', #240, #240, #257, .T. ) ;
#97 = CARTESIAN_POINT ( 'NONE',  ( 0.4399999999999999467, 0.000000000000000000, -1.536251789090978361E-15 ) ) ;
#98 = CIRCLE ( 'NONE', #39, 0.4399999999999993916 ) ;
#99 = LOCAL_TIME ( 7, 43, 25.00000000000000000, #58 ) ;
#100 = PERSON_AND_ORGANIZATION_ROLE ( 'design_supplier' ) ;
#101 = EDGE_LOOP ( 'NONE', ( #81 ) ) ;
#102 = PERSON_AND_ORGANIZATION_ROLE ( 'creator' ) ;
#103 = EDGE_CURVE ( 'NONE', #201, #201, #251, .T. ) ;
#104 = EDGE_LOOP ( 'NONE', ( #36 ) ) ;
#105 = ORIENTED_EDGE ( 'NONE', *, *, #96, .F. ) ;
#106 = CIRCLE ( 'NONE', #111, 0.4740741737109291920 ) ;
#107 = PERSON_AND_ORGANIZATION ( #224, #56 ) ;
#108 = ORIENTED_EDGE ( 'NONE', *, *, #103, .F. ) ;
#109 = CARTESIAN_POINT ( 'NONE',  ( 2.255084616694006209E-14, 0.000000000000000000, 6.458819045102516476 ) ) ;
#110 = AXIS2_PLACEMENT_3D ( 'NONE', #189, #88, #87 ) ;
#111 = AXIS2_PLACEMENT_3D ( 'NONE', #109, #3, #190 ) ;
#112 = APPROVAL_PERSON_ORGANIZATION ( #35, #2, #229 ) ;
#113 = FACE_OUTER_BOUND ( 'NONE', #14, .T. ) ;
#114 = CC_DESIGN_PERSON_AND_ORGANIZATION_ASSIGNMENT ( #107, #100, ( #154 ) ) ;
#115 = DIRECTION ( 'NONE',  ( 3.491481338843133355E-15, -0.000000000000000000, 1.000000000000000000 ) ) ;
#116 = DIRECTION ( 'NONE',  ( 1.000000000000000000, 0.000000000000000000, -3.491481338843133355E-15 ) ) ;
#117 = CARTESIAN_POINT ( 'NONE',  ( 0.8350000000000007416, 0.000000000000000000, 0.2488866896632301040 ) ) ;
#118 = PERSON_AND_ORGANIZATION ( #224, #56 ) ;
#119 = LOCAL_TIME ( 7, 43, 25.00000000000000000, #121 ) ;
#120 = DIRECTION ( 'NONE',  ( 1.000000000000000000, 0.000000000000000000, -4.625929269271491633E-15 ) ) ;
#121 = COORDINATED_UNIVERSAL_TIME_OFFSET ( 1, 0, .AHEAD. ) ;
#122 = FACE_OUTER_BOUND ( 'NONE', #186, .T. ) ;
#123 = AXIS2_PLACEMENT_3D ( 'NONE', #64, #85, #129 ) ;
#124 = EDGE_CURVE ( 'NONE', #161, #161, #144, .T. ) ;
#125 = CALENDAR_DATE ( 2023, 27, 9 ) ;
#126 = FACE_BOUND ( 'NONE', #166, .T. ) ;
#127 = CIRCLE ( 'NONE', #148, 0.8349999999999999645 ) ;
#128 = EDGE_LOOP ( 'NONE', ( #271 ) ) ;
#129 = DIRECTION ( 'NONE',  ( 1.000000000000000000, 0.000000000000000000, -4.625929269271497155E-15 ) ) ;
#130 = DIRECTION ( 'NONE',  ( 1.000000000000000000, 0.000000000000000000, -3.505803431989056433E-15 ) ) ;
#131 = AXIS2_PLACEMENT_3D ( 'NONE', #52, #199, #75 ) ;
#132 = DIRECTION ( 'NONE',  ( 3.491481338843133355E-15, -0.000000000000000000, 1.000000000000000000 ) ) ;
#133 = CARTESIAN_POINT ( 'NONE',  ( 2.164718430082742680E-14, 0.000000000000000000, 6.200000000000000178 ) ) ;
#134 = DIRECTION ( 'NONE',  ( 3.491481338843133355E-15, -0.000000000000000000, 1.000000000000000000 ) ) ;
#135 = ADVANCED_FACE ( 'NONE', ( #217 ), #169, .F. ) ;
#136 = MECHANICAL_CONTEXT ( 'NONE', #264, 'mechanical' ) ;
#137 = CONICAL_SURFACE ( 'NONE', #33, 1.499999999999996225, 0.7853981633974504994 ) ;
#138 = VERTEX_POINT ( 'NONE', #159 ) ;
#139 = VERTEX_POINT ( 'NONE', #9 ) ;
#140 = FACE_OUTER_BOUND ( 'NONE', #274, .T. ) ;
#141 = AXIS2_PLACEMENT_3D ( 'NONE', #41, #151, #212 ) ;
#142 = CALENDAR_DATE ( 2023, 27, 9 ) ;
#143 = ORIENTED_EDGE ( 'NONE', *, *, #47, .T. ) ;
#144 = CIRCLE ( 'NONE', #181, 1.500000000000000000 ) ;
#145 = ORIENTED_EDGE ( 'NONE', *, *, #96, .T. ) ;
#146 = PERSON_AND_ORGANIZATION ( #224, #56 ) ;
#147 = ORIENTED_EDGE ( 'NONE', *, *, #103, .T. ) ;
#148 = AXIS2_PLACEMENT_3D ( 'NONE', #24, #211, #5 ) ;
#149 = FACE_OUTER_BOUND ( 'NONE', #104, .T. ) ;
#150 = DIRECTION ( 'NONE',  ( 3.491481338843133355E-15, -0.000000000000000000, 1.000000000000000000 ) ) ;
#151 = DIRECTION ( 'NONE',  ( 3.491481338843133355E-15, -0.000000000000000000, 1.000000000000000000 ) ) ;
#152 = CLOSED_SHELL ( 'NONE', ( #135, #266, #163, #31, #193, #206, #23, #69, #200, #273 ) ) ;
#153 = CIRCLE ( 'NONE', #194, 0.4399999999999999467 ) ;
#154 = PRODUCT_DEFINITION_FORMATION_WITH_SPECIFIED_SOURCE ( 'ANY', '', #72, .NOT_KNOWN. ) ;
#155 = DIRECTION ( 'NONE',  ( -3.491481338843133355E-15, 0.000000000000000000, -1.000000000000000000 ) ) ;
#156 = CC_DESIGN_PERSON_AND_ORGANIZATION_ASSIGNMENT ( #146, #102, ( #154 ) ) ;
#157 = FACE_OUTER_BOUND ( 'NONE', #76, .T. ) ;
#158 = VERTEX_POINT ( 'NONE', #117 ) ;
#159 = CARTESIAN_POINT ( 'NONE',  ( 0.8350000000000006306, 0.000000000000000000, 0.2280533563298990651 ) ) ;
#160 = EDGE_CURVE ( 'NONE', #176, #176, #20, .T. ) ;
#161 = VERTEX_POINT ( 'NONE', #93 ) ;
#162 = CC_DESIGN_APPROVAL ( #268, ( #66 ) ) ;
#163 = ADVANCED_FACE ( 'NONE', ( #172, #253 ), #196, .T. ) ;
#164 = APPROVAL_STATUS ( 'not_yet_approved' ) ;
#165 = AXIS2_PLACEMENT_3D ( 'NONE', #13, #155, #216 ) ;
#166 = EDGE_LOOP ( 'NONE', ( #105 ) ) ;
#167 = DIRECTION ( 'NONE',  ( 3.491481338843133355E-15, -0.000000000000000000, 1.000000000000000000 ) ) ;
#168 = EDGE_CURVE ( 'NONE', #138, #138, #127, .T. ) ;
#169 = PLANE ( 'NONE',  #110 ) ;
#170 = DIRECTION ( 'NONE',  ( 1.000000000000000000, 0.000000000000000000, 0.000000000000000000 ) ) ;
#171 = TOROIDAL_SURFACE ( 'NONE', #90, 1.439999999999999503, 1.000000000000000000 ) ;
#172 = FACE_OUTER_BOUND ( 'NONE', #183, .T. ) ;
#173 = UNCERTAINTY_MEASURE_WITH_UNIT (LENGTH_MEASURE( 1.000000000000000082E-05 ), #48, 'distance_accuracy_value', 'NONE');
#174 = CARTESIAN_POINT ( 'NONE',  ( 2.255084616694006209E-14, 0.000000000000000000, 6.458819045102516476 ) ) ;
#175 = COORDINATED_UNIVERSAL_TIME_OFFSET ( 1, 0, .AHEAD. ) ;
#176 = VERTEX_POINT ( 'NONE', #236 ) ;
#177 = PERSON_AND_ORGANIZATION_ROLE ( 'design_owner' ) ;
#178 = PRODUCT_DEFINITION_SHAPE ( 'NONE', 'NONE',  #66 ) ;
#179 = DIRECTION ( 'NONE',  ( 1.000000000000000000, 0.000000000000000000, -3.491481338843132961E-15 ) ) ;
#180 = CARTESIAN_POINT ( 'NONE',  ( 1.200000000000125855, 0.000000000000000000, 37.99999999999999289 ) ) ;
#181 = AXIS2_PLACEMENT_3D ( 'NONE', #89, #132, #4 ) ;
#182 = PERSON_AND_ORGANIZATION ( #224, #56 ) ;
#183 = EDGE_LOOP ( 'NONE', ( #82 ) ) ;
#184 = SECURITY_CLASSIFICATION_LEVEL ( 'unclassified' ) ;
#185 = EDGE_LOOP ( 'NONE', ( #57 ) ) ;
#186 = EDGE_LOOP ( 'NONE', ( #147 ) ) ;
#187 = CALENDAR_DATE ( 2023, 27, 9 ) ;
#188 = ORIENTED_EDGE ( 'NONE', *, *, #124, .T. ) ;
#189 = CARTESIAN_POINT ( 'NONE',  ( 0.000000000000000000, 0.000000000000000000, 0.000000000000000000 ) ) ;
#190 = DIRECTION ( 'NONE',  ( 1.000000000000000000, 0.000000000000000000, -3.659181563082931671E-15 ) ) ;
#191 = DIRECTION ( 'NONE',  ( 3.491481338843133355E-15, -0.000000000000000000, 1.000000000000000000 ) ) ;
#192 = CARTESIAN_POINT ( 'NONE',  ( 8.689832324456202497E-16, 0.000000000000000000, 0.2488866896632330183 ) ) ;
#193 = ADVANCED_FACE ( 'NONE', ( #254, #157 ), #45, .T. ) ;
#194 = AXIS2_PLACEMENT_3D ( 'NONE', #44, #115, #275 ) ;
#195 = LOCAL_TIME ( 7, 43, 25.00000000000000000, #32 ) ;
#196 = CYLINDRICAL_SURFACE ( 'NONE', #241, 0.8349999999999999645 ) ;
#197 = APPLICATION_PROTOCOL_DEFINITION ( 'international standard', 'config_control_design', 1994, #6 ) ;
#198 = AXIS2_PLACEMENT_3D ( 'NONE', #222, #239, #120 ) ;
#199 = DIRECTION ( 'NONE',  ( 0.000000000000000000, 0.000000000000000000, 1.000000000000000000 ) ) ;
#200 = ADVANCED_FACE ( 'NONE', ( #21, #62 ), #84, .T. ) ;
#201 = VERTEX_POINT ( 'NONE', #180 ) ;
#202 = EDGE_LOOP ( 'NONE', ( #16 ) ) ;
#203 = AXIS2_PLACEMENT_3D ( 'NONE', #91, #167, #63 ) ;
#204 = DATE_AND_TIME ( #125, #195 ) ;
#205 = FACE_OUTER_BOUND ( 'NONE', #128, .T. ) ;
#206 = ADVANCED_FACE ( 'NONE', ( #259, #149 ), #137, .T. ) ;
#207 = EDGE_LOOP ( 'NONE', ( #55 ) ) ;
#208 = APPROVAL_DATE_TIME ( #270, #2 ) ;
#209 = APPROVAL_PERSON_ORGANIZATION ( #182, #244, #226 ) ;
#210 = EDGE_LOOP ( 'NONE', ( #60 ) ) ;
#211 = DIRECTION ( 'NONE',  ( 3.491481338843133355E-15, -0.000000000000000000, 1.000000000000000000 ) ) ;
#212 = DIRECTION ( 'NONE',  ( 1.000000000000000000, 0.000000000000000000, -5.782411586589390376E-15 ) ) ;
#213 = ADVANCED_BREP_SHAPE_REPRESENTATION ( '966003', ( #61, #131 ), #65 ) ;
#214 = SECURITY_CLASSIFICATION ( '', '', #184 ) ;
#215 = DIRECTION ( 'NONE',  ( 3.491481338843133355E-15, -0.000000000000000000, 1.000000000000000000 ) ) ;
#216 = DIRECTION ( 'NONE',  ( -1.000000000000000000, 0.000000000000000000, 3.505803431989056433E-15 ) ) ;
#217 = FACE_OUTER_BOUND ( 'NONE', #272, .T. ) ;
#218 = CC_DESIGN_APPROVAL ( #2, ( #154 ) ) ;
#219 = CARTESIAN_POINT ( 'NONE',  ( 0.4400000000000017231, 0.000000000000000000, 0.4769400459931334990 ) ) ;
#220 =( NAMED_UNIT ( * ) PLANE_ANGLE_UNIT ( ) SI_UNIT ( $, .RADIAN. ) );
#221 = VERTEX_POINT ( 'NONE', #97 ) ;
#222 = CARTESIAN_POINT ( 'NONE',  ( 1.326762908760390423E-13, 0.000000000000000000, 38.00000000000000000 ) ) ;
#223 = AXIS2_PLACEMENT_3D ( 'NONE', #192, #134, #130 ) ;
#224 = PERSON ( 'UNSPECIFIED', 'UNSPECIFIED', 'UNSPECIFIED', ('UNSPECIFIED'), ('UNSPECIFIED'), ('UNSPECIFIED') ) ;
#225 = CARTESIAN_POINT ( 'NONE',  ( 1.326762908760390423E-13, 1.199999999999993072, 38.00000000000000000 ) ) ;
#226 = APPROVAL_ROLE ( '' ) ;
#227 = ORIENTED_EDGE ( 'NONE', *, *, #53, .F. ) ;
#228 = EDGE_LOOP ( 'NONE', ( #78 ) ) ;
#229 = APPROVAL_ROLE ( '' ) ;
#230 = PERSON_AND_ORGANIZATION_ROLE ( 'classification_officer' ) ;
#231 = EDGE_LOOP ( 'NONE', ( #246 ) ) ;
#232 = DIRECTION ( 'NONE',  ( 1.000000000000000000, 0.000000000000000000, -3.659181563082931671E-15 ) ) ;
#233 = DIRECTION ( 'NONE',  ( 3.491481338843133355E-15, -0.000000000000000000, 1.000000000000000000 ) ) ;
#234 = CARTESIAN_POINT ( 'NONE',  ( 1.326762908760390423E-13, 0.000000000000000000, 38.00000000000000000 ) ) ;
#235 = DIRECTION ( 'NONE',  ( 1.000000000000000000, 0.000000000000000000, -3.942553354492748560E-15 ) ) ;
#236 = CARTESIAN_POINT ( 'NONE',  ( 1.500000000000127676, 0.000000000000000000, 37.69999999999998863 ) ) ;
#237 = AXIS2_PLACEMENT_3D ( 'NONE', #174, #150, #232 ) ;
#238 = CC_DESIGN_SECURITY_CLASSIFICATION ( #214, ( #154 ) ) ;
#239 = DIRECTION ( 'NONE',  ( 3.491481338843133355E-15, -0.000000000000000000, 1.000000000000000000 ) ) ;
#240 = VERTEX_POINT ( 'NONE', #219 ) ;
#241 = AXIS2_PLACEMENT_3D ( 'NONE', #234, #191, #170 ) ;
#242 = DATE_TIME_ROLE ( 'classification_date' ) ;
#243 = COORDINATED_UNIVERSAL_TIME_OFFSET ( 1, 0, .AHEAD. ) ;
#244 = APPROVAL ( #54, 'UNSPECIFIED' ) ;
#245 = CONICAL_SURFACE ( 'NONE', #11, 0.4399999999999999467, 1.047197551196598075 ) ;
#246 = ORIENTED_EDGE ( 'NONE', *, *, #47, .F. ) ;
#247 = DATE_TIME_ROLE ( 'creation_date' ) ;
#248 = CC_DESIGN_DATE_AND_TIME_ASSIGNMENT ( #15, #247, ( #66 ) ) ;
#249 = DESIGN_CONTEXT ( 'detailed design', #6, 'design' ) ;
#250 = PLANE ( 'NONE',  #26 ) ;
#251 = CIRCLE ( 'NONE', #141, 1.199999999999993072 ) ;
#252 = CC_DESIGN_APPROVAL ( #244, ( #214 ) ) ;
#253 = FACE_OUTER_BOUND ( 'NONE', #210, .T. ) ;
#254 = FACE_OUTER_BOUND ( 'NONE', #231, .T. ) ;
#255 = PRODUCT_RELATED_PRODUCT_CATEGORY ( 'detail', '', ( #72 ) ) ;
#256 = DIRECTION ( 'NONE',  ( -1.000000000000000000, 0.000000000000000000, 4.625929269271497155E-15 ) ) ;
#257 = CIRCLE ( 'NONE', #27, 0.4400000000000000022 ) ;
#258 = CARTESIAN_POINT ( 'NONE',  ( 2.164718430082741734E-14, 0.000000000000000000, 6.199999999999997513 ) ) ;
#259 = FACE_BOUND ( 'NONE', #59, .T. ) ;
#260 = APPROVAL_DATE_TIME ( #94, #268 ) ;
#261 = CIRCLE ( 'NONE', #223, 0.8349999999999999645 ) ;
#262 = LOCAL_TIME ( 7, 43, 25.00000000000000000, #175 ) ;
#263 = CARTESIAN_POINT ( 'NONE',  ( 0.000000000000000000, 0.000000000000000000, 0.000000000000000000 ) ) ;
#264 = APPLICATION_CONTEXT ( 'configuration controlled 3d designs of mechanical parts and assemblies' ) ;
#265 = PERSON_AND_ORGANIZATION ( #224, #56 ) ;
#266 = ADVANCED_FACE ( 'NONE', ( #19, #25 ), #245, .T. ) ;
#267 = FACE_OUTER_BOUND ( 'NONE', #228, .T. ) ;
#268 = APPROVAL ( #92, 'UNSPECIFIED' ) ;
#269 = SHAPE_DEFINITION_REPRESENTATION ( #178, #213 ) ;
#270 = DATE_AND_TIME ( #187, #119 ) ;
#271 = ORIENTED_EDGE ( 'NONE', *, *, #42, .T. ) ;
#272 = EDGE_LOOP ( 'NONE', ( #227 ) ) ;
#273 = ADVANCED_FACE ( 'NONE', ( #267, #140 ), #95, .T. ) ;
#274 = EDGE_LOOP ( 'NONE', ( #188 ) ) ;
#275 = DIRECTION ( 'NONE',  ( 1.000000000000000000, 0.000000000000000000, -3.491481338843132961E-15 ) ) ;
ENDSEC;
END-ISO-10303-21;
