ISO-10303-21;
HEADER;
FILE_DESCRIPTION (( 'STEP AP203' ),
    '1' );
FILE_NAME ('966002.step',
    '2023-09-27T05:43:25',
    ( '' ),
    ( '' ),
    'SwSTEP 2.0',
    'SolidWorks 2022',
    '' );
FILE_SCHEMA (( 'CONFIG_CONTROL_DESIGN' ));
ENDSEC;

DATA;
#1 = VERTEX_POINT ( 'NONE', #89 ) ;
#2 = UNCERTAINTY_MEASURE_WITH_UNIT (LENGTH_MEASURE( 1.000000000000000082E-05 ), #97, 'distance_accuracy_value', 'NONE');
#3 = FACE_OUTER_BOUND ( 'NONE', #191, .T. ) ;
#4 = DIRECTION ( 'NONE',  ( 1.000000000000000000, 0.000000000000000000, -3.507712910982514253E-15 ) ) ;
#5 = APPLICATION_CONTEXT ( 'configuration controlled 3d designs of mechanical parts and assemblies' ) ;
#6 = PRODUCT_DEFINITION_SHAPE ( 'NONE', 'NONE',  #94 ) ;
#7 = DATE_AND_TIME ( #161, #132 ) ;
#8 = AXIS2_PLACEMENT_3D ( 'NONE', #24, #65, #44 ) ;
#9 = CC_DESIGN_PERSON_AND_ORGANIZATION_ASSIGNMENT ( #73, #245, ( #151 ) ) ;
#10 = ORIENTED_EDGE ( 'NONE', *, *, #98, .T. ) ;
#11 = DIRECTION ( 'NONE',  ( 1.000000000000000000, 0.000000000000000000, -4.625929269271497155E-15 ) ) ;
#12 = EDGE_CURVE ( 'NONE', #109, #109, #50, .T. ) ;
#13 = FACE_OUTER_BOUND ( 'NONE', #37, .T. ) ;
#14 = DIRECTION ( 'NONE',  ( 1.000000000000000000, 0.000000000000000000, -4.448008912761052287E-15 ) ) ;
#15 = CYLINDRICAL_SURFACE ( 'NONE', #75, 0.3899999999999996247 ) ;
#16 = DATE_AND_TIME ( #167, #174 ) ;
#17 = AXIS2_PLACEMENT_3D ( 'NONE', #272, #230, #14 ) ;
#18 = DATE_AND_TIME ( #124, #51 ) ;
#19 = LOCAL_TIME ( 7, 43, 25.00000000000000000, #240 ) ;
#20 = ORIENTED_EDGE ( 'NONE', *, *, #98, .F. ) ;
#21 = DIRECTION ( 'NONE',  ( 3.491481338843133355E-15, -0.000000000000000000, 1.000000000000000000 ) ) ;
#22 = DIRECTION ( 'NONE',  ( 1.000000000000000000, 0.000000000000000000, -4.090613349067761072E-15 ) ) ;
#23 = DIRECTION ( 'NONE',  ( 1.000000000000000000, 0.000000000000000000, -4.090613349067761072E-15 ) ) ;
#24 = CARTESIAN_POINT ( 'NONE',  ( 1.326762908760390423E-13, 0.000000000000000000, 38.00000000000000000 ) ) ;
#25 = PLANE ( 'NONE',  #39 ) ;
#26 = ADVANCED_FACE ( 'NONE', ( #34, #231 ), #15, .T. ) ;
#27 =( NAMED_UNIT ( * ) SI_UNIT ( $, .STERADIAN. ) SOLID_ANGLE_UNIT ( ) );
#28 = AXIS2_PLACEMENT_3D ( 'NONE', #78, #250, #141 ) ;
#29 = LOCAL_TIME ( 7, 43, 25.00000000000000000, #205 ) ;
#30 = CARTESIAN_POINT ( 'NONE',  ( 0.7650000000000007905, 0.000000000000000000, 0.2165063509461080116 ) ) ;
#31 = APPROVAL_STATUS ( 'not_yet_approved' ) ;
#32 = CC_DESIGN_APPROVAL ( #208, ( #151 ) ) ;
#33 = CARTESIAN_POINT ( 'NONE',  ( 0.3900000000000188316, 0.000000000000000000, 5.599999999999998757 ) ) ;
#34 = FACE_OUTER_BOUND ( 'NONE', #123, .T. ) ;
#35 = ORIENTED_EDGE ( 'NONE', *, *, #200, .T. ) ;
#36 = APPROVAL_DATE_TIME ( #16, #149 ) ;
#37 = EDGE_LOOP ( 'NONE', ( #163 ) ) ;
#38 = ORIENTED_EDGE ( 'NONE', *, *, #83, .T. ) ;
#39 = AXIS2_PLACEMENT_3D ( 'NONE', #110, #194, #274 ) ;
#40 = SHAPE_DEFINITION_REPRESENTATION ( #6, #179 ) ;
#41 = DIRECTION ( 'NONE',  ( -1.000000000000000000, 0.000000000000000000, 3.507712910982514253E-15 ) ) ;
#42 = PRODUCT_RELATED_PRODUCT_CATEGORY ( 'detail', '', ( #158 ) ) ;
#43 = FACE_OUTER_BOUND ( 'NONE', #232, .T. ) ;
#44 = DIRECTION ( 'NONE',  ( 1.000000000000000000, 0.000000000000000000, 0.000000000000000000 ) ) ;
#45 = AXIS2_PLACEMENT_3D ( 'NONE', #127, #85, #218 ) ;
#46 = FACE_OUTER_BOUND ( 'NONE', #228, .T. ) ;
#47 = APPROVAL_STATUS ( 'not_yet_approved' ) ;
#48 = CC_DESIGN_PERSON_AND_ORGANIZATION_ASSIGNMENT ( #77, #229, ( #142 ) ) ;
#49 = APPROVAL_STATUS ( 'not_yet_approved' ) ;
#50 = CIRCLE ( 'NONE', #225, 1.499999999999996225 ) ;
#51 = LOCAL_TIME ( 7, 43, 25.00000000000000000, #122 ) ;
#52 = PERSON_AND_ORGANIZATION ( #157, #108 ) ;
#53 = AXIS2_PLACEMENT_3D ( 'NONE', #219, #257, #67 ) ;
#54 = EDGE_LOOP ( 'NONE', ( #10 ) ) ;
#55 = DIRECTION ( 'NONE',  ( 1.000000000000000000, 0.000000000000000000, 0.000000000000000000 ) ) ;
#56 = DIRECTION ( 'NONE',  ( 1.000000000000000000, 0.000000000000000000, -5.782411586589390376E-15 ) ) ;
#57 = EDGE_LOOP ( 'NONE', ( #35 ) ) ;
#58 = CIRCLE ( 'NONE', #53, 1.500000000000000000 ) ;
#59 = EDGE_CURVE ( 'NONE', #1, #1, #103, .T. ) ;
#60 = EDGE_LOOP ( 'NONE', ( #82 ) ) ;
#61 = AXIS2_PLACEMENT_3D ( 'NONE', #254, #238, #23 ) ;
#62 = AXIS2_PLACEMENT_3D ( 'NONE', #107, #148, #4 ) ;
#63 = DIRECTION ( 'NONE',  ( 1.000000000000000000, 0.000000000000000000, -3.491481338843132961E-15 ) ) ;
#64 = CC_DESIGN_DATE_AND_TIME_ASSIGNMENT ( #130, #206, ( #94 ) ) ;
#65 = DIRECTION ( 'NONE',  ( 3.491481338843133355E-15, -0.000000000000000000, 1.000000000000000000 ) ) ;
#66 = MANIFOLD_SOLID_BREP ( 'Corps-Déplacer/Copier1', #173 ) ;
#67 = DIRECTION ( 'NONE',  ( 1.000000000000000000, 0.000000000000000000, -3.469446951953614189E-15 ) ) ;
#68 = DIRECTION ( 'NONE',  ( -1.000000000000000000, 0.000000000000000000, 4.625929269271497155E-15 ) ) ;
#69 = DIRECTION ( 'NONE',  ( 1.000000000000000000, 0.000000000000000000, -4.625929269271491633E-15 ) ) ;
#70 = PERSON_AND_ORGANIZATION ( #157, #108 ) ;
#71 = PERSON_AND_ORGANIZATION ( #157, #108 ) ;
#72 = DIRECTION ( 'NONE',  ( 0.000000000000000000, 0.000000000000000000, 1.000000000000000000 ) ) ;
#73 = PERSON_AND_ORGANIZATION ( #157, #108 ) ;
#74 = APPROVAL_ROLE ( '' ) ;
#75 = AXIS2_PLACEMENT_3D ( 'NONE', #253, #145, #55 ) ;
#76 = ORIENTED_EDGE ( 'NONE', *, *, #189, .F. ) ;
#77 = PERSON_AND_ORGANIZATION ( #157, #108 ) ;
#78 = CARTESIAN_POINT ( 'NONE',  ( 1.955229549752154679E-14, 0.000000000000000000, 5.599999999999999645 ) ) ;
#79 = EDGE_LOOP ( 'NONE', ( #105 ) ) ;
#80 = ADVANCED_FACE ( 'NONE', ( #13, #99 ), #242, .F. ) ;
#81 = CC_DESIGN_APPROVAL ( #149, ( #142 ) ) ;
#82 = ORIENTED_EDGE ( 'NONE', *, *, #59, .F. ) ;
#83 = EDGE_CURVE ( 'NONE', #177, #177, #137, .T. ) ;
#84 = DESIGN_CONTEXT ( 'detailed design', #182, 'design' ) ;
#85 = DIRECTION ( 'NONE',  ( 3.491481338843133355E-15, -0.000000000000000000, 1.000000000000000000 ) ) ;
#86 = APPROVAL_PERSON_ORGANIZATION ( #70, #149, #183 ) ;
#87 = FACE_BOUND ( 'NONE', #60, .T. ) ;
#88 = ORIENTED_EDGE ( 'NONE', *, *, #189, .T. ) ;
#89 = CARTESIAN_POINT ( 'NONE',  ( 1.200000000000125855, 0.000000000000000000, 37.99999999999999289 ) ) ;
#90 = DIRECTION ( 'NONE',  ( 3.491481338843133355E-15, -0.000000000000000000, 1.000000000000000000 ) ) ;
#91 = DIRECTION ( 'NONE',  ( -3.491481338843133355E-15, 0.000000000000000000, -1.000000000000000000 ) ) ;
#92 = AXIS2_PLACEMENT_3D ( 'NONE', #237, #21, #69 ) ;
#93 = COORDINATED_UNIVERSAL_TIME_OFFSET ( 1, 0, .AHEAD. ) ;
#94 = PRODUCT_DEFINITION ( 'UNKNOWN', '', #151, #84 ) ;
#95 = CARTESIAN_POINT ( 'NONE',  ( 0.000000000000000000, 0.000000000000000000, 0.000000000000000000 ) ) ;
#96 = PERSON_AND_ORGANIZATION ( #157, #108 ) ;
#97 =( LENGTH_UNIT ( ) NAMED_UNIT ( * ) SI_UNIT ( .MILLI., .METRE. ) );
#98 = EDGE_CURVE ( 'NONE', #202, #202, #113, .T. ) ;
#99 = FACE_OUTER_BOUND ( 'NONE', #271, .T. ) ;
#100 = CC_DESIGN_PERSON_AND_ORGANIZATION_ASSIGNMENT ( #155, #118, ( #94 ) ) ;
#101 = CARTESIAN_POINT ( 'NONE',  ( 0.000000000000000000, 0.000000000000000000, 0.000000000000000000 ) ) ;
#102 = DIRECTION ( 'NONE',  ( 3.491481338843133355E-15, -0.000000000000000000, 1.000000000000000000 ) ) ;
#103 = CIRCLE ( 'NONE', #260, 1.199999999999993072 ) ;
#104 = DATE_TIME_ROLE ( 'classification_date' ) ;
#105 = ORIENTED_EDGE ( 'NONE', *, *, #135, .T. ) ;
#106 = FACE_OUTER_BOUND ( 'NONE', #139, .T. ) ;
#107 = CARTESIAN_POINT ( 'NONE',  ( 8.141192397167470107E-16, 0.000000000000000000, 0.2331730176127755350 ) ) ;
#108 = ORGANIZATION ( 'UNSPECIFIED', 'UNSPECIFIED', '' ) ;
#109 = VERTEX_POINT ( 'NONE', #197 ) ;
#110 = CARTESIAN_POINT ( 'NONE',  ( 0.000000000000000000, 0.000000000000000000, 0.000000000000000000 ) ) ;
#111 = CC_DESIGN_DATE_AND_TIME_ASSIGNMENT ( #18, #104, ( #142 ) ) ;
#112 = CARTESIAN_POINT ( 'NONE',  ( 2.045595736363416946E-14, 0.000000000000000000, 5.858819045102513279 ) ) ;
#113 = CIRCLE ( 'NONE', #269, 0.3899999999999999023 ) ;
#114 = CIRCLE ( 'NONE', #214, 0.3900000000000000133 ) ;
#115 = APPROVAL_DATE_TIME ( #7, #208 ) ;
#116 =( NAMED_UNIT ( * ) PLANE_ANGLE_UNIT ( ) SI_UNIT ( $, .RADIAN. ) );
#117 =( GEOMETRIC_REPRESENTATION_CONTEXT ( 3 ) GLOBAL_UNCERTAINTY_ASSIGNED_CONTEXT ( ( #2 ) ) GLOBAL_UNIT_ASSIGNED_CONTEXT ( ( #97, #116, #27 ) ) REPRESENTATION_CONTEXT ( 'NONE', 'WORKASPACE' ) );
#118 = PERSON_AND_ORGANIZATION_ROLE ( 'creator' ) ;
#119 = EDGE_LOOP ( 'NONE', ( #121 ) ) ;
#120 = EDGE_LOOP ( 'NONE', ( #251 ) ) ;
#121 = ORIENTED_EDGE ( 'NONE', *, *, #233, .T. ) ;
#122 = COORDINATED_UNIVERSAL_TIME_OFFSET ( 1, 0, .AHEAD. ) ;
#123 = EDGE_LOOP ( 'NONE', ( #268 ) ) ;
#124 = CALENDAR_DATE ( 2023, 27, 9 ) ;
#125 = DIRECTION ( 'NONE',  ( 3.491481338843133355E-15, -0.000000000000000000, 1.000000000000000000 ) ) ;
#126 = FACE_OUTER_BOUND ( 'NONE', #170, .T. ) ;
#127 = CARTESIAN_POINT ( 'NONE',  ( 7.559278840693678972E-16, 0.000000000000000000, 0.2165063509461107039 ) ) ;
#128 = CARTESIAN_POINT ( 'NONE',  ( 1.326762908760390423E-13, 1.199999999999993072, 38.00000000000000000 ) ) ;
#129 = DIRECTION ( 'NONE',  ( 3.491481338843133355E-15, -0.000000000000000000, 1.000000000000000000 ) ) ;
#130 = DATE_AND_TIME ( #266, #29 ) ;
#131 = VERTEX_POINT ( 'NONE', #204 ) ;
#132 = LOCAL_TIME ( 7, 43, 25.00000000000000000, #93 ) ;
#133 = APPROVAL_ROLE ( '' ) ;
#134 = CALENDAR_DATE ( 2023, 27, 9 ) ;
#135 = EDGE_CURVE ( 'NONE', #226, #226, #190, .T. ) ;
#136 = APPROVAL_DATE_TIME ( #187, #203 ) ;
#137 = CIRCLE ( 'NONE', #17, 0.3899999999999992917 ) ;
#138 = AXIS2_PLACEMENT_3D ( 'NONE', #95, #72, #263 ) ;
#139 = EDGE_LOOP ( 'NONE', ( #209 ) ) ;
#140 = CC_DESIGN_PERSON_AND_ORGANIZATION_ASSIGNMENT ( #96, #265, ( #158 ) ) ;
#141 = DIRECTION ( 'NONE',  ( 1.000000000000000000, 0.000000000000000000, -3.491481338843133355E-15 ) ) ;
#142 = SECURITY_CLASSIFICATION ( '', '', #168 ) ;
#143 = ORIENTED_EDGE ( 'NONE', *, *, #12, .T. ) ;
#144 = ADVANCED_FACE ( 'NONE', ( #46, #172 ), #211, .T. ) ;
#145 = DIRECTION ( 'NONE',  ( 3.491481338843133355E-15, -0.000000000000000000, 1.000000000000000000 ) ) ;
#146 = AXIS2_PLACEMENT_3D ( 'NONE', #259, #217, #68 ) ;
#147 = DIRECTION ( 'NONE',  ( 1.000000000000000000, 0.000000000000000000, -3.475006963094565443E-15 ) ) ;
#148 = DIRECTION ( 'NONE',  ( 3.491481338843133355E-15, -0.000000000000000000, 1.000000000000000000 ) ) ;
#149 = APPROVAL ( #47, 'UNSPECIFIED' ) ;
#150 = FACE_OUTER_BOUND ( 'NONE', #273, .T. ) ;
#151 = PRODUCT_DEFINITION_FORMATION_WITH_SPECIFIED_SOURCE ( 'ANY', '', #158, .NOT_KNOWN. ) ;
#152 = DIRECTION ( 'NONE',  ( -3.491481338843133355E-15, 0.000000000000000000, -1.000000000000000000 ) ) ;
#153 = ADVANCED_FACE ( 'NONE', ( #175, #196 ), #178, .T. ) ;
#154 = CYLINDRICAL_SURFACE ( 'NONE', #8, 0.7650000000000000133 ) ;
#155 = PERSON_AND_ORGANIZATION ( #157, #108 ) ;
#156 = CONICAL_SURFACE ( 'NONE', #270, 0.7650000000000000133, 1.047197551196595633 ) ;
#157 = PERSON ( 'UNSPECIFIED', 'UNSPECIFIED', 'UNSPECIFIED', ('UNSPECIFIED'), ('UNSPECIFIED'), ('UNSPECIFIED') ) ;
#158 = PRODUCT ( '966002', '966002', '', ( #244 ) ) ;
#159 = APPLICATION_PROTOCOL_DEFINITION ( 'international standard', 'config_control_design', 1994, #182 ) ;
#160 = ADVANCED_FACE ( 'NONE', ( #256, #216 ), #154, .T. ) ;
#161 = CALENDAR_DATE ( 2023, 27, 9 ) ;
#162 = APPLICATION_PROTOCOL_DEFINITION ( 'international standard', 'config_control_design', 1994, #5 ) ;
#163 = ORIENTED_EDGE ( 'NONE', *, *, #135, .F. ) ;
#164 = APPROVAL_PERSON_ORGANIZATION ( #71, #203, #133 ) ;
#165 = ORIENTED_EDGE ( 'NONE', *, *, #12, .F. ) ;
#166 = EDGE_LOOP ( 'NONE', ( #76 ) ) ;
#167 = CALENDAR_DATE ( 2023, 27, 9 ) ;
#168 = SECURITY_CLASSIFICATION_LEVEL ( 'unclassified' ) ;
#169 = CONICAL_SURFACE ( 'NONE', #248, 0.4240741737109290921, 0.2617993877991428575 ) ;
#170 = EDGE_LOOP ( 'NONE', ( #249 ) ) ;
#171 = CARTESIAN_POINT ( 'NONE',  ( 1.316288464743861212E-13, 0.000000000000000000, 37.69999999999999574 ) ) ;
#172 = FACE_BOUND ( 'NONE', #54, .T. ) ;
#173 = CLOSED_SHELL ( 'NONE', ( #223, #144, #160, #241, #26, #258, #185, #80, #247, #153 ) ) ;
#174 = LOCAL_TIME ( 7, 43, 25.00000000000000000, #176 ) ;
#175 = FACE_OUTER_BOUND ( 'NONE', #213, .T. ) ;
#176 = COORDINATED_UNIVERSAL_TIME_OFFSET ( 1, 0, .AHEAD. ) ;
#177 = VERTEX_POINT ( 'NONE', #33 ) ;
#178 = CYLINDRICAL_SURFACE ( 'NONE', #92, 1.499999999999998002 ) ;
#179 = ADVANCED_BREP_SHAPE_REPRESENTATION ( '966002', ( #66, #138 ), #117 ) ;
#180 = CIRCLE ( 'NONE', #45, 0.7650000000000000133 ) ;
#181 = CARTESIAN_POINT ( 'NONE',  ( 1.570047123786114908E-15, 0.000000000000000000, 0.4496793685588862388 ) ) ;
#182 = APPLICATION_CONTEXT ( 'configuration controlled 3d designs of mechanical parts and assemblies' ) ;
#183 = APPROVAL_ROLE ( '' ) ;
#184 = VERTEX_POINT ( 'NONE', #30 ) ;
#185 = ADVANCED_FACE ( 'NONE', ( #106 ), #239, .F. ) ;
#186 = VERTEX_POINT ( 'NONE', #267 ) ;
#187 = DATE_AND_TIME ( #134, #19 ) ;
#188 = EDGE_LOOP ( 'NONE', ( #207 ) ) ;
#189 = EDGE_CURVE ( 'NONE', #131, #131, #234, .T. ) ;
#190 = CIRCLE ( 'NONE', #61, 0.4240741737109290921 ) ;
#191 = EDGE_LOOP ( 'NONE', ( #88 ) ) ;
#192 = AXIS2_PLACEMENT_3D ( 'NONE', #128, #91, #275 ) ;
#193 = ORIENTED_EDGE ( 'NONE', *, *, #233, .F. ) ;
#194 = DIRECTION ( 'NONE',  ( 3.491481338843133355E-15, -0.000000000000000000, 1.000000000000000000 ) ) ;
#195 = EDGE_CURVE ( 'NONE', #186, #186, #58, .T. ) ;
#196 = FACE_OUTER_BOUND ( 'NONE', #120, .T. ) ;
#197 = CARTESIAN_POINT ( 'NONE',  ( 1.500000000000127676, 0.000000000000000000, 37.69999999999998863 ) ) ;
#198 = FACE_BOUND ( 'NONE', #188, .T. ) ;
#199 = DIRECTION ( 'NONE',  ( 1.000000000000000000, 0.000000000000000000, -3.491481338843132961E-15 ) ) ;
#200 = EDGE_CURVE ( 'NONE', #220, #220, #114, .T. ) ;
#201 = CC_DESIGN_APPROVAL ( #203, ( #94 ) ) ;
#202 = VERTEX_POINT ( 'NONE', #246 ) ;
#203 = APPROVAL ( #31, 'UNSPECIFIED' ) ;
#204 = CARTESIAN_POINT ( 'NONE',  ( 0.7650000000000009015, 0.000000000000000000, 0.2331730176127728427 ) ) ;
#205 = COORDINATED_UNIVERSAL_TIME_OFFSET ( 1, 0, .AHEAD. ) ;
#206 = DATE_TIME_ROLE ( 'creation_date' ) ;
#207 = ORIENTED_EDGE ( 'NONE', *, *, #200, .F. ) ;
#208 = APPROVAL ( #49, 'UNSPECIFIED' ) ;
#209 = ORIENTED_EDGE ( 'NONE', *, *, #59, .T. ) ;
#210 = DIRECTION ( 'NONE',  ( 3.491481338843133355E-15, -0.000000000000000000, 1.000000000000000000 ) ) ;
#211 = CONICAL_SURFACE ( 'NONE', #221, 0.3899999999999999023, 1.047197551196595855 ) ;
#212 = CARTESIAN_POINT ( 'NONE',  ( 1.326762908760390423E-13, 0.000000000000000000, 38.00000000000000000 ) ) ;
#213 = EDGE_LOOP ( 'NONE', ( #165 ) ) ;
#214 = AXIS2_PLACEMENT_3D ( 'NONE', #181, #125, #147 ) ;
#215 = CARTESIAN_POINT ( 'NONE',  ( 0.000000000000000000, 0.000000000000000000, 0.000000000000000000 ) ) ;
#216 = FACE_OUTER_BOUND ( 'NONE', #119, .T. ) ;
#217 = DIRECTION ( 'NONE',  ( -3.491481338843133355E-15, 0.000000000000000000, -1.000000000000000000 ) ) ;
#218 = DIRECTION ( 'NONE',  ( 1.000000000000000000, 0.000000000000000000, -3.507712910982514253E-15 ) ) ;
#219 = CARTESIAN_POINT ( 'NONE',  ( 3.447568591882812096E-14, 0.000000000000000000, 9.874228893988957978 ) ) ;
#220 = VERTEX_POINT ( 'NONE', #222 ) ;
#221 = AXIS2_PLACEMENT_3D ( 'NONE', #215, #129, #63 ) ;
#222 = CARTESIAN_POINT ( 'NONE',  ( 0.3900000000000015676, 0.000000000000000000, 0.4496793685588849065 ) ) ;
#223 = ADVANCED_FACE ( 'NONE', ( #150 ), #25, .F. ) ;
#224 = PERSON_AND_ORGANIZATION ( #157, #108 ) ;
#225 = AXIS2_PLACEMENT_3D ( 'NONE', #171, #102, #11 ) ;
#226 = VERTEX_POINT ( 'NONE', #264 ) ;
#227 = PERSON_AND_ORGANIZATION_ROLE ( 'design_supplier' ) ;
#228 = EDGE_LOOP ( 'NONE', ( #193 ) ) ;
#229 = PERSON_AND_ORGANIZATION_ROLE ( 'classification_officer' ) ;
#230 = DIRECTION ( 'NONE',  ( 3.491481338843133355E-15, -0.000000000000000000, 1.000000000000000000 ) ) ;
#231 = FACE_OUTER_BOUND ( 'NONE', #57, .T. ) ;
#232 = EDGE_LOOP ( 'NONE', ( #143 ) ) ;
#233 = EDGE_CURVE ( 'NONE', #184, #184, #180, .T. ) ;
#234 = CIRCLE ( 'NONE', #62, 0.7650000000000000133 ) ;
#235 = CARTESIAN_POINT ( 'NONE',  ( 8.141192397167470107E-16, 0.000000000000000000, 0.2331730176127755350 ) ) ;
#236 = FACE_BOUND ( 'NONE', #79, .T. ) ;
#237 = CARTESIAN_POINT ( 'NONE',  ( 1.326762908760390423E-13, 0.000000000000000000, 38.00000000000000000 ) ) ;
#238 = DIRECTION ( 'NONE',  ( 3.491481338843133355E-15, -0.000000000000000000, 1.000000000000000000 ) ) ;
#239 = PLANE ( 'NONE',  #192 ) ;
#240 = COORDINATED_UNIVERSAL_TIME_OFFSET ( 1, 0, .AHEAD. ) ;
#241 = ADVANCED_FACE ( 'NONE', ( #198, #3 ), #156, .T. ) ;
#242 = TOROIDAL_SURFACE ( 'NONE', #28, 1.389999999999999236, 1.000000000000000000 ) ;
#243 = CC_DESIGN_SECURITY_CLASSIFICATION ( #142, ( #151 ) ) ;
#244 = MECHANICAL_CONTEXT ( 'NONE', #5, 'mechanical' ) ;
#245 = PERSON_AND_ORGANIZATION_ROLE ( 'creator' ) ;
#246 = CARTESIAN_POINT ( 'NONE',  ( 0.3899999999999999023, 0.000000000000000000, -1.361677722148821496E-15 ) ) ;
#247 = ADVANCED_FACE ( 'NONE', ( #126, #236 ), #169, .T. ) ;
#248 = AXIS2_PLACEMENT_3D ( 'NONE', #112, #90, #22 ) ;
#249 = ORIENTED_EDGE ( 'NONE', *, *, #195, .F. ) ;
#250 = DIRECTION ( 'NONE',  ( 3.491481338843133355E-15, -0.000000000000000000, 1.000000000000000000 ) ) ;
#251 = ORIENTED_EDGE ( 'NONE', *, *, #195, .T. ) ;
#252 = CC_DESIGN_PERSON_AND_ORGANIZATION_ASSIGNMENT ( #52, #227, ( #151 ) ) ;
#253 = CARTESIAN_POINT ( 'NONE',  ( 1.326762908760390423E-13, 0.000000000000000000, 38.00000000000000000 ) ) ;
#254 = CARTESIAN_POINT ( 'NONE',  ( 2.045595736363416946E-14, 0.000000000000000000, 5.858819045102513279 ) ) ;
#255 = APPROVAL_PERSON_ORGANIZATION ( #224, #208, #74 ) ;
#256 = FACE_OUTER_BOUND ( 'NONE', #166, .T. ) ;
#257 = DIRECTION ( 'NONE',  ( 3.491481338843133355E-15, -0.000000000000000000, 1.000000000000000000 ) ) ;
#258 = ADVANCED_FACE ( 'NONE', ( #87, #43 ), #261, .T. ) ;
#259 = CARTESIAN_POINT ( 'NONE',  ( 1.316288464743861212E-13, 0.000000000000000000, 37.69999999999999574 ) ) ;
#260 = AXIS2_PLACEMENT_3D ( 'NONE', #212, #210, #56 ) ;
#261 = CONICAL_SURFACE ( 'NONE', #146, 1.499999999999996225, 0.7853981633974504994 ) ;
#262 = DIRECTION ( 'NONE',  ( 3.491481338843133355E-15, -0.000000000000000000, 1.000000000000000000 ) ) ;
#263 = DIRECTION ( 'NONE',  ( 1.000000000000000000, 0.000000000000000000, 0.000000000000000000 ) ) ;
#264 = CARTESIAN_POINT ( 'NONE',  ( 0.4240741737109495202, 0.000000000000000000, 5.858819045102511502 ) ) ;
#265 = PERSON_AND_ORGANIZATION_ROLE ( 'design_owner' ) ;
#266 = CALENDAR_DATE ( 2023, 27, 9 ) ;
#267 = CARTESIAN_POINT ( 'NONE',  ( 1.500000000000034417, 0.000000000000000000, 9.874228893988952649 ) ) ;
#268 = ORIENTED_EDGE ( 'NONE', *, *, #83, .F. ) ;
#269 = AXIS2_PLACEMENT_3D ( 'NONE', #101, #262, #199 ) ;
#270 = AXIS2_PLACEMENT_3D ( 'NONE', #235, #152, #41 ) ;
#271 = EDGE_LOOP ( 'NONE', ( #38 ) ) ;
#272 = CARTESIAN_POINT ( 'NONE',  ( 1.955229549752154995E-14, 0.000000000000000000, 5.600000000000000533 ) ) ;
#273 = EDGE_LOOP ( 'NONE', ( #20 ) ) ;
#274 = DIRECTION ( 'NONE',  ( 1.000000000000000000, 0.000000000000000000, -3.491481338843133355E-15 ) ) ;
#275 = DIRECTION ( 'NONE',  ( -1.000000000000000000, 0.000000000000000000, 3.491481338843133355E-15 ) ) ;
ENDSEC;
END-ISO-10303-21;
