ISO-10303-21;
HEADER;
FILE_DESCRIPTION (( 'STEP AP203' ),
    '1' );
FILE_NAME ('966001.step',
    '2023-09-27T05:43:24',
    ( '' ),
    ( '' ),
    'SwSTEP 2.0',
    'SolidWorks 2022',
    '' );
FILE_SCHEMA (( 'CONFIG_CONTROL_DESIGN' ));
ENDSEC;

DATA;
#1 = ORIENTED_EDGE ( 'NONE', *, *, #4, .F. ) ;
#2 = DESIGN_CONTEXT ( 'detailed design', #268, 'design' ) ;
#3 = ORIENTED_EDGE ( 'NONE', *, *, #4, .T. ) ;
#4 = EDGE_CURVE ( 'NONE', #240, #240, #63, .T. ) ;
#5 = PERSON_AND_ORGANIZATION ( #124, #199 ) ;
#6 = CARTESIAN_POINT ( 'NONE',  ( 1.428940585426491334E-15, 0.000000000000000000, 0.4092648497156098353 ) ) ;
#7 = APPROVAL_PERSON_ORGANIZATION ( #249, #103, #19 ) ;
#8 = ORIENTED_EDGE ( 'NONE', *, *, #201, .F. ) ;
#9 = DIRECTION ( 'NONE',  ( 1.000000000000000000, 0.000000000000000000, -3.510007033226453485E-15 ) ) ;
#10 = DIRECTION ( 'NONE',  ( 3.491481338843133355E-15, -0.000000000000000000, 1.000000000000000000 ) ) ;
#11 = ADVANCED_FACE ( 'NONE', ( #237, #254 ), #196, .T. ) ;
#12 = AXIS2_PLACEMENT_3D ( 'NONE', #73, #177, #142 ) ;
#13 = CARTESIAN_POINT ( 'NONE',  ( 1.326762908760390423E-13, 0.000000000000000000, 38.00000000000000000 ) ) ;
#14 = DIRECTION ( 'NONE',  ( 3.491481338843133355E-15, -0.000000000000000000, 1.000000000000000000 ) ) ;
#15 = ADVANCED_FACE ( 'NONE', ( #90, #174 ), #107, .T. ) ;
#16 = CALENDAR_DATE ( 2023, 27, 9 ) ;
#17 = AXIS2_PLACEMENT_3D ( 'NONE', #259, #10, #9 ) ;
#18 = ADVANCED_BREP_SHAPE_REPRESENTATION ( '966001', ( #224, #23 ), #129 ) ;
#19 = APPROVAL_ROLE ( '' ) ;
#20 = PERSON_AND_ORGANIZATION ( #124, #199 ) ;
#21 = EDGE_CURVE ( 'NONE', #182, #182, #250, .T. ) ;
#22 = CARTESIAN_POINT ( 'NONE',  ( 1.326762908760390423E-13, 0.000000000000000000, 38.00000000000000000 ) ) ;
#23 = AXIS2_PLACEMENT_3D ( 'NONE', #221, #205, #105 ) ;
#24 = ORIENTED_EDGE ( 'NONE', *, *, #99, .F. ) ;
#25 = EDGE_LOOP ( 'NONE', ( #178 ) ) ;
#26 = FACE_OUTER_BOUND ( 'NONE', #110, .T. ) ;
#27 = AXIS2_PLACEMENT_3D ( 'NONE', #47, #162, #212 ) ;
#28 = ORIENTED_EDGE ( 'NONE', *, *, #21, .F. ) ;
#29 = CARTESIAN_POINT ( 'NONE',  ( 1.871021669421260278E-14, 0.000000000000000000, 5.358819045102512391 ) ) ;
#30 = EDGE_LOOP ( 'NONE', ( #93 ) ) ;
#31 = APPROVAL ( #168, 'UNSPECIFIED' ) ;
#32 = DIRECTION ( 'NONE',  ( -3.491481338843133355E-15, 0.000000000000000000, -1.000000000000000000 ) ) ;
#33 = FACE_OUTER_BOUND ( 'NONE', #218, .T. ) ;
#34 = LOCAL_TIME ( 7, 43, 24.00000000000000000, #106 ) ;
#35 = FACE_OUTER_BOUND ( 'NONE', #233, .T. ) ;
#36 = ADVANCED_FACE ( 'NONE', ( #88, #26 ), #133, .T. ) ;
#37 = CARTESIAN_POINT ( 'NONE',  ( 1.780655482809998011E-14, 0.000000000000000000, 5.100000000000000533 ) ) ;
#38 = CARTESIAN_POINT ( 'NONE',  ( 1.200000000000125855, 0.000000000000000000, 37.99999999999999289 ) ) ;
#39 = APPLICATION_CONTEXT ( 'configuration controlled 3d designs of mechanical parts and assemblies' ) ;
#40 = CIRCLE ( 'NONE', #223, 0.3890741737109290055 ) ;
#41 = EDGE_CURVE ( 'NONE', #79, #79, #192, .T. ) ;
#42 = VERTEX_POINT ( 'NONE', #38 ) ;
#43 = CARTESIAN_POINT ( 'NONE',  ( 0.3550000000000171907, 0.000000000000000000, 5.099999999999999645 ) ) ;
#44 = CLOSED_SHELL ( 'NONE', ( #226, #236, #11, #15, #36, #208, #151, #257, #231, #242 ) ) ;
#45 = APPROVAL_DATE_TIME ( #102, #103 ) ;
#46 = EDGE_CURVE ( 'NONE', #219, #219, #40, .T. ) ;
#47 = CARTESIAN_POINT ( 'NONE',  ( 0.000000000000000000, 0.000000000000000000, 0.000000000000000000 ) ) ;
#48 = DIRECTION ( 'NONE',  ( 3.491481338843133355E-15, -0.000000000000000000, 1.000000000000000000 ) ) ;
#49 = AXIS2_PLACEMENT_3D ( 'NONE', #13, #184, #215 ) ;
#50 = CARTESIAN_POINT ( 'NONE',  ( 1.326762908760390423E-13, 0.000000000000000000, 38.00000000000000000 ) ) ;
#51 = FACE_OUTER_BOUND ( 'NONE', #139, .T. ) ;
#52 = CIRCLE ( 'NONE', #247, 0.3549999999999994271 ) ;
#53 = EDGE_LOOP ( 'NONE', ( #3 ) ) ;
#54 = DIRECTION ( 'NONE',  ( -3.491481338843133355E-15, 0.000000000000000000, -1.000000000000000000 ) ) ;
#55 = DIRECTION ( 'NONE',  ( -1.000000000000000000, 0.000000000000000000, 4.625929269271497155E-15 ) ) ;
#56 = PRODUCT_RELATED_PRODUCT_CATEGORY ( 'detail', '', ( #122 ) ) ;
#57 = DIRECTION ( 'NONE',  ( 3.491481338843133355E-15, -0.000000000000000000, 1.000000000000000000 ) ) ;
#58 = AXIS2_PLACEMENT_3D ( 'NONE', #29, #57, #165 ) ;
#59 = CARTESIAN_POINT ( 'NONE',  ( 3.318600875066501218E-14, 0.000000000000000000, 9.504850672253873256 ) ) ;
#60 = APPROVAL_ROLE ( '' ) ;
#61 = SECURITY_CLASSIFICATION_LEVEL ( 'unclassified' ) ;
#62 = CC_DESIGN_PERSON_AND_ORGANIZATION_ASSIGNMENT ( #5, #232, ( #256 ) ) ;
#63 = CIRCLE ( 'NONE', #27, 0.3549999999999999267 ) ;
#64 = EDGE_LOOP ( 'NONE', ( #134 ) ) ;
#65 = COORDINATED_UNIVERSAL_TIME_OFFSET ( 1, 0, .AHEAD. ) ;
#66 = APPLICATION_PROTOCOL_DEFINITION ( 'international standard', 'config_control_design', 1994, #268 ) ;
#67 = CONICAL_SURFACE ( 'NONE', #149, 0.3549999999999999267, 1.047197551196598519 ) ;
#68 = ORIENTED_EDGE ( 'NONE', *, *, #201, .T. ) ;
#69 = AXIS2_PLACEMENT_3D ( 'NONE', #97, #14, #245 ) ;
#70 = COORDINATED_UNIVERSAL_TIME_OFFSET ( 1, 0, .AHEAD. ) ;
#71 = EDGE_LOOP ( 'NONE', ( #28 ) ) ;
#72 = APPROVAL_DATE_TIME ( #131, #252 ) ;
#73 = CARTESIAN_POINT ( 'NONE',  ( 0.000000000000000000, 0.000000000000000000, 0.000000000000000000 ) ) ;
#74 = AXIS2_PLACEMENT_3D ( 'NONE', #200, #262, #100 ) ;
#75 = DIRECTION ( 'NONE',  ( 1.000000000000000000, 0.000000000000000000, -3.491481338843132961E-15 ) ) ;
#76 = TOROIDAL_SURFACE ( 'NONE', #74, 1.354999999999999316, 1.000000000000000000 ) ;
#77 = PLANE ( 'NONE',  #96 ) ;
#78 = CARTESIAN_POINT ( 'NONE',  ( 0.3550000000000013700, 0.000000000000000000, 0.4092648497156086140 ) ) ;
#79 = VERTEX_POINT ( 'NONE', #243 ) ;
#80 = CONICAL_SURFACE ( 'NONE', #58, 0.3890741737109290055, 0.2617993877991428020 ) ;
#81 = PERSON_AND_ORGANIZATION ( #124, #199 ) ;
#82 = DATE_AND_TIME ( #187, #239 ) ;
#83 = PERSON_AND_ORGANIZATION ( #124, #199 ) ;
#84 = LOCAL_TIME ( 7, 43, 24.00000000000000000, #206 ) ;
#85 = PERSON_AND_ORGANIZATION_ROLE ( 'design_owner' ) ;
#86 = CC_DESIGN_PERSON_AND_ORGANIZATION_ASSIGNMENT ( #150, #169, ( #112 ) ) ;
#87 = LOCAL_TIME ( 7, 43, 24.00000000000000000, #203 ) ;
#88 = FACE_OUTER_BOUND ( 'NONE', #209, .T. ) ;
#89 = DIRECTION ( 'NONE',  ( 1.000000000000000000, 0.000000000000000000, 0.000000000000000000 ) ) ;
#90 = FACE_BOUND ( 'NONE', #71, .T. ) ;
#91 = AXIS2_PLACEMENT_3D ( 'NONE', #146, #94, #265 ) ;
#92 = SHAPE_DEFINITION_REPRESENTATION ( #101, #18 ) ;
#93 = ORIENTED_EDGE ( 'NONE', *, *, #46, .F. ) ;
#94 = DIRECTION ( 'NONE',  ( 3.491481338843133355E-15, -0.000000000000000000, 1.000000000000000000 ) ) ;
#95 = CARTESIAN_POINT ( 'NONE',  ( 1.316288464743861212E-13, 0.000000000000000000, 37.69999999999999574 ) ) ;
#96 = AXIS2_PLACEMENT_3D ( 'NONE', #220, #54, #241 ) ;
#97 = CARTESIAN_POINT ( 'NONE',  ( 1.326762908760390423E-13, 0.000000000000000000, 38.00000000000000000 ) ) ;
#98 = DIRECTION ( 'NONE',  ( 3.491481338843133355E-15, -0.000000000000000000, 1.000000000000000000 ) ) ;
#99 = EDGE_CURVE ( 'NONE', #42, #42, #158, .T. ) ;
#100 = DIRECTION ( 'NONE',  ( 1.000000000000000000, 0.000000000000000000, -3.491481338843133355E-15 ) ) ;
#101 = PRODUCT_DEFINITION_SHAPE ( 'NONE', 'NONE',  #263 ) ;
#102 = DATE_AND_TIME ( #189, #84 ) ;
#103 = APPROVAL ( #272, 'UNSPECIFIED' ) ;
#104 = CC_DESIGN_APPROVAL ( #252, ( #256 ) ) ;
#105 = DIRECTION ( 'NONE',  ( 1.000000000000000000, 0.000000000000000000, 0.000000000000000000 ) ) ;
#106 = COORDINATED_UNIVERSAL_TIME_OFFSET ( 1, 0, .AHEAD. ) ;
#107 = CONICAL_SURFACE ( 'NONE', #185, 0.6949999999999999512, 1.047197551196598297 ) ;
#108 = ORIENTED_EDGE ( 'NONE', *, *, #21, .T. ) ;
#109 = DIRECTION ( 'NONE',  ( -3.491481338843133355E-15, 0.000000000000000000, -1.000000000000000000 ) ) ;
#110 = EDGE_LOOP ( 'NONE', ( #108 ) ) ;
#111 = CC_DESIGN_DATE_AND_TIME_ASSIGNMENT ( #156, #211, ( #256 ) ) ;
#112 = PRODUCT_DEFINITION_FORMATION_WITH_SPECIFIED_SOURCE ( 'ANY', '', #122, .NOT_KNOWN. ) ;
#113 = ORIENTED_EDGE ( 'NONE', *, *, #123, .T. ) ;
#114 = ORIENTED_EDGE ( 'NONE', *, *, #194, .T. ) ;
#115 = DIRECTION ( 'NONE',  ( 1.000000000000000000, 0.000000000000000000, -4.458593227690453455E-15 ) ) ;
#116 = EDGE_LOOP ( 'NONE', ( #136 ) ) ;
#117 = FACE_OUTER_BOUND ( 'NONE', #64, .T. ) ;
#118 = APPROVAL_PERSON_ORGANIZATION ( #81, #31, #60 ) ;
#119 = DIRECTION ( 'NONE',  ( 1.000000000000000000, 0.000000000000000000, -3.469446951953614189E-15 ) ) ;
#120 = FACE_OUTER_BOUND ( 'NONE', #210, .T. ) ;
#121 = DIRECTION ( 'NONE',  ( 1.000000000000000000, 0.000000000000000000, -2.443272501375788707E-15 ) ) ;
#122 = PRODUCT ( '966001', '966001', '', ( #126 ) ) ;
#123 = EDGE_CURVE ( 'NONE', #227, #227, #207, .T. ) ;
#124 = PERSON ( 'UNSPECIFIED', 'UNSPECIFIED', 'UNSPECIFIED', ('UNSPECIFIED'), ('UNSPECIFIED'), ('UNSPECIFIED') ) ;
#125 = APPROVAL_PERSON_ORGANIZATION ( #193, #252, #274 ) ;
#126 = MECHANICAL_CONTEXT ( 'NONE', #39, 'mechanical' ) ;
#127 = VERTEX_POINT ( 'NONE', #273 ) ;
#128 = CARTESIAN_POINT ( 'NONE',  ( 1.500000000000033307, 0.000000000000000000, 9.504850672253867927 ) ) ;
#129 =( GEOMETRIC_REPRESENTATION_CONTEXT ( 3 ) GLOBAL_UNCERTAINTY_ASSIGNED_CONTEXT ( ( #130 ) ) GLOBAL_UNIT_ASSIGNED_CONTEXT ( ( #191, #148, #270 ) ) REPRESENTATION_CONTEXT ( 'NONE', 'WORKASPACE' ) );
#130 = UNCERTAINTY_MEASURE_WITH_UNIT (LENGTH_MEASURE( 1.000000000000000082E-05 ), #191, 'distance_accuracy_value', 'NONE');
#131 = DATE_AND_TIME ( #160, #34 ) ;
#132 = CALENDAR_DATE ( 2023, 27, 9 ) ;
#133 = CYLINDRICAL_SURFACE ( 'NONE', #261, 0.3549999999999997047 ) ;
#134 = ORIENTED_EDGE ( 'NONE', *, *, #183, .T. ) ;
#135 = CIRCLE ( 'NONE', #91, 0.6949999999999999512 ) ;
#136 = ORIENTED_EDGE ( 'NONE', *, *, #41, .F. ) ;
#137 = CC_DESIGN_PERSON_AND_ORGANIZATION_ASSIGNMENT ( #186, #85, ( #122 ) ) ;
#138 = DIRECTION ( 'NONE',  ( -1.000000000000000000, 0.000000000000000000, 3.510007033226453485E-15 ) ) ;
#139 = EDGE_LOOP ( 'NONE', ( #1 ) ) ;
#140 = DIRECTION ( 'NONE',  ( 3.491481338843133355E-15, -0.000000000000000000, 1.000000000000000000 ) ) ;
#141 = AXIS2_PLACEMENT_3D ( 'NONE', #155, #48, #260 ) ;
#142 = DIRECTION ( 'NONE',  ( 1.000000000000000000, 0.000000000000000000, -3.491481338843133355E-15 ) ) ;
#143 = FACE_OUTER_BOUND ( 'NONE', #25, .T. ) ;
#144 = DIRECTION ( 'NONE',  ( 3.491481338843133355E-15, -0.000000000000000000, 1.000000000000000000 ) ) ;
#145 = CC_DESIGN_SECURITY_CLASSIFICATION ( #256, ( #112 ) ) ;
#146 = CARTESIAN_POINT ( 'NONE',  ( 7.435659705369351252E-16, 0.000000000000000000, 0.2129657581911373332 ) ) ;
#147 = DIRECTION ( 'NONE',  ( 3.491481338843133355E-15, -0.000000000000000000, 1.000000000000000000 ) ) ;
#148 =( NAMED_UNIT ( * ) PLANE_ANGLE_UNIT ( ) SI_UNIT ( $, .RADIAN. ) );
#149 = AXIS2_PLACEMENT_3D ( 'NONE', #180, #144, #75 ) ;
#150 = PERSON_AND_ORGANIZATION ( #124, #199 ) ;
#151 = ADVANCED_FACE ( 'NONE', ( #143 ), #77, .F. ) ;
#152 = APPROVAL_DATE_TIME ( #82, #31 ) ;
#153 = VERTEX_POINT ( 'NONE', #43 ) ;
#154 = CC_DESIGN_APPROVAL ( #31, ( #112 ) ) ;
#155 = CARTESIAN_POINT ( 'NONE',  ( 1.316288464743861212E-13, 0.000000000000000000, 37.69999999999999574 ) ) ;
#156 = DATE_AND_TIME ( #132, #271 ) ;
#157 = ORIENTED_EDGE ( 'NONE', *, *, #41, .T. ) ;
#158 = CIRCLE ( 'NONE', #69, 1.199999999999993072 ) ;
#159 = CC_DESIGN_PERSON_AND_ORGANIZATION_ASSIGNMENT ( #83, #246, ( #112 ) ) ;
#160 = CALENDAR_DATE ( 2023, 27, 9 ) ;
#161 = ORIENTED_EDGE ( 'NONE', *, *, #194, .F. ) ;
#162 = DIRECTION ( 'NONE',  ( 3.491481338843133355E-15, -0.000000000000000000, 1.000000000000000000 ) ) ;
#163 = FACE_BOUND ( 'NONE', #229, .T. ) ;
#164 = CYLINDRICAL_SURFACE ( 'NONE', #49, 1.499999999999998002 ) ;
#165 = DIRECTION ( 'NONE',  ( 1.000000000000000000, 0.000000000000000000, -4.458593227690453455E-15 ) ) ;
#166 = CONICAL_SURFACE ( 'NONE', #204, 1.499999999999996225, 0.7853981633974504994 ) ;
#167 = CARTESIAN_POINT ( 'NONE',  ( 1.871021669421260278E-14, 0.000000000000000000, 5.358819045102512391 ) ) ;
#168 = APPROVAL_STATUS ( 'not_yet_approved' ) ;
#169 = PERSON_AND_ORGANIZATION_ROLE ( 'creator' ) ;
#170 = PERSON_AND_ORGANIZATION_ROLE ( 'creator' ) ;
#171 = DATE_TIME_ROLE ( 'creation_date' ) ;
#172 = APPROVAL_STATUS ( 'not_yet_approved' ) ;
#173 = DIRECTION ( 'NONE',  ( 3.491481338843133355E-15, -0.000000000000000000, 1.000000000000000000 ) ) ;
#174 = FACE_OUTER_BOUND ( 'NONE', #244, .T. ) ;
#175 = CIRCLE ( 'NONE', #17, 0.6949999999999999512 ) ;
#176 = ORIENTED_EDGE ( 'NONE', *, *, #183, .F. ) ;
#177 = DIRECTION ( 'NONE',  ( 3.491481338843133355E-15, -0.000000000000000000, 1.000000000000000000 ) ) ;
#178 = ORIENTED_EDGE ( 'NONE', *, *, #99, .T. ) ;
#179 = CC_DESIGN_PERSON_AND_ORGANIZATION_ASSIGNMENT ( #20, #170, ( #263 ) ) ;
#180 = CARTESIAN_POINT ( 'NONE',  ( 0.000000000000000000, 0.000000000000000000, 0.000000000000000000 ) ) ;
#181 = DIRECTION ( 'NONE',  ( 3.491481338843133355E-15, -0.000000000000000000, 1.000000000000000000 ) ) ;
#182 = VERTEX_POINT ( 'NONE', #78 ) ;
#183 = EDGE_CURVE ( 'NONE', #153, #153, #52, .T. ) ;
#184 = DIRECTION ( 'NONE',  ( 3.491481338843133355E-15, -0.000000000000000000, 1.000000000000000000 ) ) ;
#185 = AXIS2_PLACEMENT_3D ( 'NONE', #235, #109, #138 ) ;
#186 = PERSON_AND_ORGANIZATION ( #124, #199 ) ;
#187 = CALENDAR_DATE ( 2023, 27, 9 ) ;
#188 = CARTESIAN_POINT ( 'NONE',  ( 0.3890741737109477127, 0.000000000000000000, 5.358819045102510614 ) ) ;
#189 = CALENDAR_DATE ( 2023, 27, 9 ) ;
#190 = AXIS2_PLACEMENT_3D ( 'NONE', #50, #230, #89 ) ;
#191 =( LENGTH_UNIT ( ) NAMED_UNIT ( * ) SI_UNIT ( .MILLI., .METRE. ) );
#192 = CIRCLE ( 'NONE', #141, 1.499999999999996225 ) ;
#193 = PERSON_AND_ORGANIZATION ( #124, #199 ) ;
#194 = EDGE_CURVE ( 'NONE', #248, #248, #175, .T. ) ;
#195 = EDGE_LOOP ( 'NONE', ( #251 ) ) ;
#196 = CYLINDRICAL_SURFACE ( 'NONE', #190, 0.6949999999999999512 ) ;
#197 = FACE_BOUND ( 'NONE', #255, .T. ) ;
#198 = FACE_OUTER_BOUND ( 'NONE', #30, .T. ) ;
#199 = ORGANIZATION ( 'UNSPECIFIED', 'UNSPECIFIED', '' ) ;
#200 = CARTESIAN_POINT ( 'NONE',  ( 1.780655482809997696E-14, 0.000000000000000000, 5.099999999999999645 ) ) ;
#201 = EDGE_CURVE ( 'NONE', #127, #127, #135, .T. ) ;
#202 = FACE_BOUND ( 'NONE', #53, .T. ) ;
#203 = COORDINATED_UNIVERSAL_TIME_OFFSET ( 1, 0, .AHEAD. ) ;
#204 = AXIS2_PLACEMENT_3D ( 'NONE', #95, #32, #55 ) ;
#205 = DIRECTION ( 'NONE',  ( 0.000000000000000000, 0.000000000000000000, 1.000000000000000000 ) ) ;
#206 = COORDINATED_UNIVERSAL_TIME_OFFSET ( 1, 0, .AHEAD. ) ;
#207 = CIRCLE ( 'NONE', #228, 1.500000000000000000 ) ;
#208 = ADVANCED_FACE ( 'NONE', ( #163, #35 ), #166, .T. ) ;
#209 = EDGE_LOOP ( 'NONE', ( #176 ) ) ;
#210 = EDGE_LOOP ( 'NONE', ( #161 ) ) ;
#211 = DATE_TIME_ROLE ( 'classification_date' ) ;
#212 = DIRECTION ( 'NONE',  ( 1.000000000000000000, 0.000000000000000000, -3.491481338843132961E-15 ) ) ;
#213 = DIRECTION ( 'NONE',  ( 1.000000000000000000, 0.000000000000000000, -3.512204220727690448E-15 ) ) ;
#214 = FACE_OUTER_BOUND ( 'NONE', #195, .T. ) ;
#215 = DIRECTION ( 'NONE',  ( 1.000000000000000000, 0.000000000000000000, -4.625929269271491633E-15 ) ) ;
#216 = FACE_OUTER_BOUND ( 'NONE', #116, .T. ) ;
#217 = AXIS2_PLACEMENT_3D ( 'NONE', #6, #140, #213 ) ;
#218 = EDGE_LOOP ( 'NONE', ( #113 ) ) ;
#219 = VERTEX_POINT ( 'NONE', #188 ) ;
#220 = CARTESIAN_POINT ( 'NONE',  ( 1.326762908760390423E-13, 1.199999999999993072, 38.00000000000000000 ) ) ;
#221 = CARTESIAN_POINT ( 'NONE',  ( 0.000000000000000000, 0.000000000000000000, 0.000000000000000000 ) ) ;
#222 = EDGE_LOOP ( 'NONE', ( #114 ) ) ;
#223 = AXIS2_PLACEMENT_3D ( 'NONE', #167, #181, #115 ) ;
#224 = MANIFOLD_SOLID_BREP ( 'Corps-Déplacer/Copier1', #44 ) ;
#225 = CARTESIAN_POINT ( 'NONE',  ( 0.6950000000000006173, 0.000000000000000000, 0.1962990915244700596 ) ) ;
#226 = ADVANCED_FACE ( 'NONE', ( #51 ), #238, .F. ) ;
#227 = VERTEX_POINT ( 'NONE', #128 ) ;
#228 = AXIS2_PLACEMENT_3D ( 'NONE', #59, #147, #119 ) ;
#229 = EDGE_LOOP ( 'NONE', ( #24 ) ) ;
#230 = DIRECTION ( 'NONE',  ( 3.491481338843133355E-15, -0.000000000000000000, 1.000000000000000000 ) ) ;
#231 = ADVANCED_FACE ( 'NONE', ( #214, #197 ), #80, .T. ) ;
#232 = PERSON_AND_ORGANIZATION_ROLE ( 'classification_officer' ) ;
#233 = EDGE_LOOP ( 'NONE', ( #157 ) ) ;
#234 = CC_DESIGN_APPROVAL ( #103, ( #263 ) ) ;
#235 = CARTESIAN_POINT ( 'NONE',  ( 7.435659705369351252E-16, 0.000000000000000000, 0.2129657581911373332 ) ) ;
#236 = ADVANCED_FACE ( 'NONE', ( #120, #202 ), #67, .T. ) ;
#237 = FACE_OUTER_BOUND ( 'NONE', #258, .T. ) ;
#238 = PLANE ( 'NONE',  #12 ) ;
#239 = LOCAL_TIME ( 7, 43, 24.00000000000000000, #65 ) ;
#240 = VERTEX_POINT ( 'NONE', #266 ) ;
#241 = DIRECTION ( 'NONE',  ( -1.000000000000000000, 0.000000000000000000, 3.491481338843133355E-15 ) ) ;
#242 = ADVANCED_FACE ( 'NONE', ( #216, #33 ), #164, .T. ) ;
#243 = CARTESIAN_POINT ( 'NONE',  ( 1.500000000000127676, 0.000000000000000000, 37.69999999999998863 ) ) ;
#244 = EDGE_LOOP ( 'NONE', ( #68 ) ) ;
#245 = DIRECTION ( 'NONE',  ( 1.000000000000000000, 0.000000000000000000, -5.782411586589390376E-15 ) ) ;
#246 = PERSON_AND_ORGANIZATION_ROLE ( 'design_supplier' ) ;
#247 = AXIS2_PLACEMENT_3D ( 'NONE', #37, #98, #121 ) ;
#248 = VERTEX_POINT ( 'NONE', #225 ) ;
#249 = PERSON_AND_ORGANIZATION ( #124, #199 ) ;
#250 = CIRCLE ( 'NONE', #217, 0.3549999999999999822 ) ;
#251 = ORIENTED_EDGE ( 'NONE', *, *, #123, .F. ) ;
#252 = APPROVAL ( #172, 'UNSPECIFIED' ) ;
#253 = DIRECTION ( 'NONE',  ( 1.000000000000000000, 0.000000000000000000, 0.000000000000000000 ) ) ;
#254 = FACE_OUTER_BOUND ( 'NONE', #222, .T. ) ;
#255 = EDGE_LOOP ( 'NONE', ( #264 ) ) ;
#256 = SECURITY_CLASSIFICATION ( '', '', #61 ) ;
#257 = ADVANCED_FACE ( 'NONE', ( #198, #117 ), #76, .F. ) ;
#258 = EDGE_LOOP ( 'NONE', ( #8 ) ) ;
#259 = CARTESIAN_POINT ( 'NONE',  ( 6.853746148895560116E-16, 0.000000000000000000, 0.1962990915244725021 ) ) ;
#260 = DIRECTION ( 'NONE',  ( 1.000000000000000000, 0.000000000000000000, -4.625929269271497155E-15 ) ) ;
#261 = AXIS2_PLACEMENT_3D ( 'NONE', #22, #173, #253 ) ;
#262 = DIRECTION ( 'NONE',  ( 3.491481338843133355E-15, -0.000000000000000000, 1.000000000000000000 ) ) ;
#263 = PRODUCT_DEFINITION ( 'UNKNOWN', '', #112, #2 ) ;
#264 = ORIENTED_EDGE ( 'NONE', *, *, #46, .T. ) ;
#265 = DIRECTION ( 'NONE',  ( 1.000000000000000000, 0.000000000000000000, -3.510007033226453485E-15 ) ) ;
#266 = CARTESIAN_POINT ( 'NONE',  ( 0.3549999999999999267, 0.000000000000000000, -1.239475875289311907E-15 ) ) ;
#267 = DATE_AND_TIME ( #16, #87 ) ;
#268 = APPLICATION_CONTEXT ( 'configuration controlled 3d designs of mechanical parts and assemblies' ) ;
#269 = APPLICATION_PROTOCOL_DEFINITION ( 'international standard', 'config_control_design', 1994, #39 ) ;
#270 =( NAMED_UNIT ( * ) SI_UNIT ( $, .STERADIAN. ) SOLID_ANGLE_UNIT ( ) );
#271 = LOCAL_TIME ( 7, 43, 24.00000000000000000, #70 ) ;
#272 = APPROVAL_STATUS ( 'not_yet_approved' ) ;
#273 = CARTESIAN_POINT ( 'NONE',  ( 0.6950000000000007283, 0.000000000000000000, 0.2129657581911348907 ) ) ;
#274 = APPROVAL_ROLE ( '' ) ;
#275 = CC_DESIGN_DATE_AND_TIME_ASSIGNMENT ( #267, #171, ( #263 ) ) ;
ENDSEC;
END-ISO-10303-21;
