ISO-10303-21;
HEADER;
FILE_DESCRIPTION (( 'STEP AP203' ),
    '1' );
FILE_NAME ('966000.step',
    '2023-09-27T05:43:24',
    ( '' ),
    ( '' ),
    'SwSTEP 2.0',
    'SolidWorks 2022',
    '' );
FILE_SCHEMA (( 'CONFIG_CONTROL_DESIGN' ));
ENDSEC;

DATA;
#1 = PRODUCT_DEFINITION_SHAPE ( 'NONE', 'NONE',  #173 ) ;
#2 = EDGE_LOOP ( 'NONE', ( #81 ) ) ;
#3 = CIRCLE ( 'NONE', #95, 0.3590741737109291454 ) ;
#4 = EDGE_LOOP ( 'NONE', ( #241 ) ) ;
#5 = DIRECTION ( 'NONE',  ( 1.000000000000000000, 0.000000000000000000, -4.625929269271497155E-15 ) ) ;
#6 = ADVANCED_FACE ( 'NONE', ( #153 ), #10, .F. ) ;
#7 = CIRCLE ( 'NONE', #152, 0.3249999999999999556 ) ;
#8 = DIRECTION ( 'NONE',  ( 1.000000000000000000, 0.000000000000000000, -3.507712910982514647E-15 ) ) ;
#9 = LOCAL_TIME ( 7, 43, 24.00000000000000000, #69 ) ;
#10 = PLANE ( 'NONE',  #117 ) ;
#11 = CARTESIAN_POINT ( 'NONE',  ( 0.000000000000000000, 0.000000000000000000, 0.000000000000000000 ) ) ;
#12 = DIRECTION ( 'NONE',  ( 3.491481338843133355E-15, -0.000000000000000000, 1.000000000000000000 ) ) ;
#13 = EDGE_LOOP ( 'NONE', ( #53 ) ) ;
#14 = EDGE_LOOP ( 'NONE', ( #161 ) ) ;
#15 = CARTESIAN_POINT ( 'NONE',  ( 0.3250000000000011768, 0.000000000000000000, 0.3409358120290614247 ) ) ;
#16 = CC_DESIGN_APPROVAL ( #154, ( #79 ) ) ;
#17 = FACE_OUTER_BOUND ( 'NONE', #96, .T. ) ;
#18 = APPROVAL_ROLE ( '' ) ;
#19 = PRODUCT ( '966000', '966000', '', ( #228 ) ) ;
#20 = CC_DESIGN_PERSON_AND_ORGANIZATION_ASSIGNMENT ( #127, #215, ( #79 ) ) ;
#21 = DIRECTION ( 'NONE',  ( 3.491481338843133355E-15, -0.000000000000000000, 1.000000000000000000 ) ) ;
#22 = CONICAL_SURFACE ( 'NONE', #30, 0.3249999999999999556, 1.047197551196605625 ) ;
#23 = COORDINATED_UNIVERSAL_TIME_OFFSET ( 1, 0, .AHEAD. ) ;
#24 = APPROVAL_STATUS ( 'not_yet_approved' ) ;
#25 = AXIS2_PLACEMENT_3D ( 'NONE', #11, #84, #254 ) ;
#26 = APPROVAL_PERSON_ORGANIZATION ( #237, #240, #172 ) ;
#27 = PERSON_AND_ORGANIZATION ( #62, #64 ) ;
#28 = ORIENTED_EDGE ( 'NONE', *, *, #166, .T. ) ;
#29 = EDGE_LOOP ( 'NONE', ( #219 ) ) ;
#30 = AXIS2_PLACEMENT_3D ( 'NONE', #264, #12, #145 ) ;
#31 = APPLICATION_CONTEXT ( 'configuration controlled 3d designs of mechanical parts and assemblies' ) ;
#32 = FACE_OUTER_BOUND ( 'NONE', #134, .T. ) ;
#33 = EDGE_CURVE ( 'NONE', #122, #122, #51, .T. ) ;
#34 = DIRECTION ( 'NONE',  ( 1.000000000000000000, 0.000000000000000000, -2.415550327734427290E-15 ) ) ;
#35 = AXIS2_PLACEMENT_3D ( 'NONE', #36, #119, #156 ) ;
#36 = CARTESIAN_POINT ( 'NONE',  ( 1.326762908760390423E-13, 0.000000000000000000, 38.00000000000000000 ) ) ;
#37 = DIRECTION ( 'NONE',  ( 1.000000000000000000, 0.000000000000000000, -4.625929269271491633E-15 ) ) ;
#38 = DIRECTION ( 'NONE',  ( 1.000000000000000000, 0.000000000000000000, -2.668805347656630031E-15 ) ) ;
#39 = CARTESIAN_POINT ( 'NONE',  ( 0.5950000000000005285, 0.000000000000000000, 0.1558845726811940169 ) ) ;
#40 = AXIS2_PLACEMENT_3D ( 'NONE', #256, #160, #249 ) ;
#41 = TOROIDAL_SURFACE ( 'NONE', #179, 1.324999999999999289, 1.000000000000000000 ) ;
#42 = CARTESIAN_POINT ( 'NONE',  ( 0.3249999999999999556, 0.000000000000000000, -1.134731435124018143E-15 ) ) ;
#43 = COORDINATED_UNIVERSAL_TIME_OFFSET ( 1, 0, .AHEAD. ) ;
#44 = FACE_OUTER_BOUND ( 'NONE', #115, .T. ) ;
#45 = CALENDAR_DATE ( 2023, 27, 9 ) ;
#46 = AXIS2_PLACEMENT_3D ( 'NONE', #247, #176, #55 ) ;
#47 = CC_DESIGN_APPROVAL ( #213, ( #173 ) ) ;
#48 = DATE_TIME_ROLE ( 'classification_date' ) ;
#49 = EDGE_CURVE ( 'NONE', #120, #120, #260, .T. ) ;
#50 = APPROVAL_STATUS ( 'not_yet_approved' ) ;
#51 = CIRCLE ( 'NONE', #171, 0.3250000000000000111 ) ;
#52 = PRODUCT_RELATED_PRODUCT_CATEGORY ( 'detail', '', ( #19 ) ) ;
#53 = ORIENTED_EDGE ( 'NONE', *, *, #49, .F. ) ;
#54 = DIRECTION ( 'NONE',  ( 3.491481338843133355E-15, -0.000000000000000000, 1.000000000000000000 ) ) ;
#55 = DIRECTION ( 'NONE',  ( 1.000000000000000000, 0.000000000000000000, -2.415550327734427290E-15 ) ) ;
#56 = CARTESIAN_POINT ( 'NONE',  ( 1.661532789090673539E-14, 0.000000000000000000, 4.758819045102516299 ) ) ;
#57 = DIRECTION ( 'NONE',  ( 3.491481338843133355E-15, -0.000000000000000000, 1.000000000000000000 ) ) ;
#58 = CARTESIAN_POINT ( 'NONE',  ( 3.148203151986636916E-14, 0.000000000000000000, 9.016812196480941566 ) ) ;
#59 = ORIENTED_EDGE ( 'NONE', *, *, #182, .F. ) ;
#60 = FACE_OUTER_BOUND ( 'NONE', #248, .T. ) ;
#61 = CARTESIAN_POINT ( 'NONE',  ( 0.000000000000000000, 0.000000000000000000, 0.000000000000000000 ) ) ;
#62 = PERSON ( 'UNSPECIFIED', 'UNSPECIFIED', 'UNSPECIFIED', ('UNSPECIFIED'), ('UNSPECIFIED'), ('UNSPECIFIED') ) ;
#63 = CARTESIAN_POINT ( 'NONE',  ( 1.571166602479409063E-14, 0.000000000000000000, 4.499999999999997335 ) ) ;
#64 = ORGANIZATION ( 'UNSPECIFIED', 'UNSPECIFIED', '' ) ;
#65 =( LENGTH_UNIT ( ) NAMED_UNIT ( * ) SI_UNIT ( .MILLI., .METRE. ) );
#66 = PERSON_AND_ORGANIZATION_ROLE ( 'design_supplier' ) ;
#67 = FACE_BOUND ( 'NONE', #14, .T. ) ;
#68 = ADVANCED_BREP_SHAPE_REPRESENTATION ( '966000', ( #144, #25 ), #192 ) ;
#69 = COORDINATED_UNIVERSAL_TIME_OFFSET ( 1, 0, .AHEAD. ) ;
#70 = CALENDAR_DATE ( 2023, 27, 9 ) ;
#71 = DATE_TIME_ROLE ( 'creation_date' ) ;
#72 = ORIENTED_EDGE ( 'NONE', *, *, #33, .T. ) ;
#73 = CC_DESIGN_PERSON_AND_ORGANIZATION_ASSIGNMENT ( #255, #66, ( #207 ) ) ;
#74 = CLOSED_SHELL ( 'NONE', ( #6, #242, #218, #250, #128, #234, #118, #157, #130, #258 ) ) ;
#75 = EDGE_LOOP ( 'NONE', ( #262 ) ) ;
#76 = PLANE ( 'NONE',  #196 ) ;
#77 = DIRECTION ( 'NONE',  ( 3.491481338843133355E-15, -0.000000000000000000, 1.000000000000000000 ) ) ;
#78 = CIRCLE ( 'NONE', #275, 0.3249999999999995670 ) ;
#79 = SECURITY_CLASSIFICATION ( '', '', #235 ) ;
#80 = EDGE_LOOP ( 'NONE', ( #243 ) ) ;
#81 = ORIENTED_EDGE ( 'NONE', *, *, #190, .F. ) ;
#82 = CARTESIAN_POINT ( 'NONE',  ( 0.000000000000000000, 0.000000000000000000, 0.000000000000000000 ) ) ;
#83 = EDGE_LOOP ( 'NONE', ( #174 ) ) ;
#84 = DIRECTION ( 'NONE',  ( 0.000000000000000000, 0.000000000000000000, 1.000000000000000000 ) ) ;
#85 = CIRCLE ( 'NONE', #35, 1.199999999999993072 ) ;
#86 = FACE_OUTER_BOUND ( 'NONE', #220, .T. ) ;
#87 = ORIENTED_EDGE ( 'NONE', *, *, #194, .T. ) ;
#88 = FACE_OUTER_BOUND ( 'NONE', #121, .T. ) ;
#89 = VERTEX_POINT ( 'NONE', #163 ) ;
#90 = CARTESIAN_POINT ( 'NONE',  ( 0.3250000000000152767, 0.000000000000000000, 4.499999999999996447 ) ) ;
#91 = CONICAL_SURFACE ( 'NONE', #269, 0.5949999999999999734, 1.047197551196605625 ) ;
#92 = DATE_AND_TIME ( #45, #165 ) ;
#93 = DIRECTION ( 'NONE',  ( 3.491481338843133355E-15, -0.000000000000000000, 1.000000000000000000 ) ) ;
#94 = APPROVAL_DATE_TIME ( #150, #154 ) ;
#95 = AXIS2_PLACEMENT_3D ( 'NONE', #56, #139, #34 ) ;
#96 = EDGE_LOOP ( 'NONE', ( #103 ) ) ;
#97 = DIRECTION ( 'NONE',  ( -1.000000000000000000, 0.000000000000000000, 3.491481338843133355E-15 ) ) ;
#98 = FACE_OUTER_BOUND ( 'NONE', #195, .T. ) ;
#99 = LOCAL_TIME ( 7, 43, 24.00000000000000000, #43 ) ;
#100 = CARTESIAN_POINT ( 'NONE',  ( 1.571166602479410010E-14, 0.000000000000000000, 4.500000000000000000 ) ) ;
#101 = CC_DESIGN_PERSON_AND_ORGANIZATION_ASSIGNMENT ( #125, #146, ( #173 ) ) ;
#102 = FACE_OUTER_BOUND ( 'NONE', #111, .T. ) ;
#103 = ORIENTED_EDGE ( 'NONE', *, *, #49, .T. ) ;
#104 = CONICAL_SURFACE ( 'NONE', #40, 1.499999999999996225, 0.7853981633974504994 ) ;
#105 = CARTESIAN_POINT ( 'NONE',  ( 1.500000000000127676, 0.000000000000000000, 37.69999999999998863 ) ) ;
#106 = VERTEX_POINT ( 'NONE', #267 ) ;
#107 = VERTEX_POINT ( 'NONE', #90 ) ;
#108 = DATE_AND_TIME ( #149, #99 ) ;
#109 = CARTESIAN_POINT ( 'NONE',  ( 1.326762908760390423E-13, 0.000000000000000000, 38.00000000000000000 ) ) ;
#110 = DATE_AND_TIME ( #169, #113 ) ;
#111 = EDGE_LOOP ( 'NONE', ( #244 ) ) ;
#112 = UNCERTAINTY_MEASURE_WITH_UNIT (LENGTH_MEASURE( 1.000000000000000082E-05 ), #65, 'distance_accuracy_value', 'NONE');
#113 = LOCAL_TIME ( 7, 43, 24.00000000000000000, #214 ) ;
#114 = FACE_OUTER_BOUND ( 'NONE', #4, .T. ) ;
#115 = EDGE_LOOP ( 'NONE', ( #87 ) ) ;
#116 = CARTESIAN_POINT ( 'NONE',  ( 1.190371025442802286E-15, 0.000000000000000000, 0.3409358120290625904 ) ) ;
#117 = AXIS2_PLACEMENT_3D ( 'NONE', #82, #57, #155 ) ;
#118 = ADVANCED_FACE ( 'NONE', ( #114 ), #76, .F. ) ;
#119 = DIRECTION ( 'NONE',  ( 3.491481338843133355E-15, -0.000000000000000000, 1.000000000000000000 ) ) ;
#120 = VERTEX_POINT ( 'NONE', #105 ) ;
#121 = EDGE_LOOP ( 'NONE', ( #59 ) ) ;
#122 = VERTEX_POINT ( 'NONE', #15 ) ;
#123 = DIRECTION ( 'NONE',  ( -1.000000000000000000, 0.000000000000000000, 3.507712910982514647E-15 ) ) ;
#124 = VERTEX_POINT ( 'NONE', #185 ) ;
#125 = PERSON_AND_ORGANIZATION ( #62, #64 ) ;
#126 = CYLINDRICAL_SURFACE ( 'NONE', #184, 1.499999999999998002 ) ;
#127 = PERSON_AND_ORGANIZATION ( #62, #64 ) ;
#128 = ADVANCED_FACE ( 'NONE', ( #32, #98 ), #227, .T. ) ;
#129 = APPROVAL_STATUS ( 'not_yet_approved' ) ;
#130 = ADVANCED_FACE ( 'NONE', ( #102, #178 ), #265, .T. ) ;
#131 = APPROVAL_DATE_TIME ( #92, #240 ) ;
#132 = CIRCLE ( 'NONE', #164, 0.5949999999999999734 ) ;
#133 = CC_DESIGN_DATE_AND_TIME_ASSIGNMENT ( #110, #48, ( #79 ) ) ;
#134 = EDGE_LOOP ( 'NONE', ( #200 ) ) ;
#135 = CARTESIAN_POINT ( 'NONE',  ( 6.461029489128699467E-16, 0.000000000000000000, 0.1850512393478664919 ) ) ;
#136 = APPROVAL_PERSON_ORGANIZATION ( #27, #154, #211 ) ;
#137 = ORIENTED_EDGE ( 'NONE', *, *, #33, .F. ) ;
#138 = DIRECTION ( 'NONE',  ( 1.000000000000000000, 0.000000000000000000, -3.491481338843133355E-15 ) ) ;
#139 = DIRECTION ( 'NONE',  ( 3.491481338843133355E-15, -0.000000000000000000, 1.000000000000000000 ) ) ;
#140 = DIRECTION ( 'NONE',  ( 1.000000000000000000, 0.000000000000000000, -3.507712910982514647E-15 ) ) ;
#141 = FACE_OUTER_BOUND ( 'NONE', #193, .T. ) ;
#142 = VERTEX_POINT ( 'NONE', #39 ) ;
#143 = AXIS2_PLACEMENT_3D ( 'NONE', #109, #230, #271 ) ;
#144 = MANIFOLD_SOLID_BREP ( 'Corps-Déplacer/Copier1', #74 ) ;
#145 = DIRECTION ( 'NONE',  ( 1.000000000000000000, 0.000000000000000000, -3.491481338843133355E-15 ) ) ;
#146 = PERSON_AND_ORGANIZATION_ROLE ( 'creator' ) ;
#147 = PERSON_AND_ORGANIZATION_ROLE ( 'creator' ) ;
#148 = CARTESIAN_POINT ( 'NONE',  ( 6.461029489128699467E-16, 0.000000000000000000, 0.1850512393478664919 ) ) ;
#149 = CALENDAR_DATE ( 2023, 27, 9 ) ;
#150 = DATE_AND_TIME ( #70, #197 ) ;
#151 = CC_DESIGN_DATE_AND_TIME_ASSIGNMENT ( #167, #71, ( #173 ) ) ;
#152 = AXIS2_PLACEMENT_3D ( 'NONE', #61, #268, #186 ) ;
#153 = FACE_OUTER_BOUND ( 'NONE', #29, .T. ) ;
#154 = APPROVAL ( #24, 'UNSPECIFIED' ) ;
#155 = DIRECTION ( 'NONE',  ( 1.000000000000000000, 0.000000000000000000, -3.491481338843133355E-15 ) ) ;
#156 = DIRECTION ( 'NONE',  ( 1.000000000000000000, 0.000000000000000000, -5.782411586589390376E-15 ) ) ;
#157 = ADVANCED_FACE ( 'NONE', ( #263, #201 ), #41, .F. ) ;
#158 = AXIS2_PLACEMENT_3D ( 'NONE', #58, #93, #189 ) ;
#159 = APPLICATION_PROTOCOL_DEFINITION ( 'international standard', 'config_control_design', 1994, #31 ) ;
#160 = DIRECTION ( 'NONE',  ( -3.491481338843133355E-15, 0.000000000000000000, -1.000000000000000000 ) ) ;
#161 = ORIENTED_EDGE ( 'NONE', *, *, #222, .T. ) ;
#162 = CYLINDRICAL_SURFACE ( 'NONE', #143, 0.5949999999999999734 ) ;
#163 = CARTESIAN_POINT ( 'NONE',  ( 1.500000000000031530, 0.000000000000000000, 9.016812196480936237 ) ) ;
#164 = AXIS2_PLACEMENT_3D ( 'NONE', #180, #246, #140 ) ;
#165 = LOCAL_TIME ( 7, 43, 24.00000000000000000, #188 ) ;
#166 = EDGE_CURVE ( 'NONE', #124, #124, #236, .T. ) ;
#167 = DATE_AND_TIME ( #209, #9 ) ;
#168 = FACE_BOUND ( 'NONE', #2, .T. ) ;
#169 = CALENDAR_DATE ( 2023, 27, 9 ) ;
#170 = EDGE_CURVE ( 'NONE', #266, #266, #3, .T. ) ;
#171 = AXIS2_PLACEMENT_3D ( 'NONE', #116, #245, #223 ) ;
#172 = APPROVAL_ROLE ( '' ) ;
#173 = PRODUCT_DEFINITION ( 'UNKNOWN', '', #207, #175 ) ;
#174 = ORIENTED_EDGE ( 'NONE', *, *, #170, .F. ) ;
#175 = DESIGN_CONTEXT ( 'detailed design', #273, 'design' ) ;
#176 = DIRECTION ( 'NONE',  ( 3.491481338843133355E-15, -0.000000000000000000, 1.000000000000000000 ) ) ;
#177 = CARTESIAN_POINT ( 'NONE',  ( 1.316288464743861212E-13, 0.000000000000000000, 37.69999999999999574 ) ) ;
#178 = FACE_BOUND ( 'NONE', #80, .T. ) ;
#179 = AXIS2_PLACEMENT_3D ( 'NONE', #100, #77, #138 ) ;
#180 = CARTESIAN_POINT ( 'NONE',  ( 5.442680765299322405E-16, 0.000000000000000000, 0.1558845726811960986 ) ) ;
#181 = DIRECTION ( 'NONE',  ( -3.491481338843133355E-15, 0.000000000000000000, -1.000000000000000000 ) ) ;
#182 = EDGE_CURVE ( 'NONE', #142, #142, #132, .T. ) ;
#183 = ORIENTED_EDGE ( 'NONE', *, *, #182, .T. ) ;
#184 = AXIS2_PLACEMENT_3D ( 'NONE', #210, #21, #37 ) ;
#185 = CARTESIAN_POINT ( 'NONE',  ( 0.5950000000000006395, 0.000000000000000000, 0.1850512393478644102 ) ) ;
#186 = DIRECTION ( 'NONE',  ( 1.000000000000000000, 0.000000000000000000, -3.491481338843133355E-15 ) ) ;
#187 =( NAMED_UNIT ( * ) PLANE_ANGLE_UNIT ( ) SI_UNIT ( $, .RADIAN. ) );
#188 = COORDINATED_UNIVERSAL_TIME_OFFSET ( 1, 0, .AHEAD. ) ;
#189 = DIRECTION ( 'NONE',  ( 1.000000000000000000, 0.000000000000000000, -3.469446951953614189E-15 ) ) ;
#190 = EDGE_CURVE ( 'NONE', #106, #106, #85, .T. ) ;
#191 = AXIS2_PLACEMENT_3D ( 'NONE', #259, #54, #198 ) ;
#192 =( GEOMETRIC_REPRESENTATION_CONTEXT ( 3 ) GLOBAL_UNCERTAINTY_ASSIGNED_CONTEXT ( ( #112 ) ) GLOBAL_UNIT_ASSIGNED_CONTEXT ( ( #65, #187, #226 ) ) REPRESENTATION_CONTEXT ( 'NONE', 'WORKASPACE' ) );
#193 = EDGE_LOOP ( 'NONE', ( #183 ) ) ;
#194 = EDGE_CURVE ( 'NONE', #89, #89, #202, .T. ) ;
#195 = EDGE_LOOP ( 'NONE', ( #72 ) ) ;
#196 = AXIS2_PLACEMENT_3D ( 'NONE', #224, #181, #97 ) ;
#197 = LOCAL_TIME ( 7, 43, 24.00000000000000000, #23 ) ;
#198 = DIRECTION ( 'NONE',  ( 1.000000000000000000, 0.000000000000000000, 0.000000000000000000 ) ) ;
#199 = CC_DESIGN_PERSON_AND_ORGANIZATION_ASSIGNMENT ( #239, #216, ( #19 ) ) ;
#200 = ORIENTED_EDGE ( 'NONE', *, *, #274, .F. ) ;
#201 = FACE_OUTER_BOUND ( 'NONE', #75, .T. ) ;
#202 = CIRCLE ( 'NONE', #158, 1.500000000000000000 ) ;
#203 = CC_DESIGN_APPROVAL ( #240, ( #207 ) ) ;
#204 = DIRECTION ( 'NONE',  ( 3.491481338843133355E-15, -0.000000000000000000, 1.000000000000000000 ) ) ;
#205 = FACE_OUTER_BOUND ( 'NONE', #13, .T. ) ;
#206 = AXIS2_PLACEMENT_3D ( 'NONE', #135, #261, #8 ) ;
#207 = PRODUCT_DEFINITION_FORMATION_WITH_SPECIFIED_SOURCE ( 'ANY', '', #19, .NOT_KNOWN. ) ;
#208 = CC_DESIGN_PERSON_AND_ORGANIZATION_ASSIGNMENT ( #257, #147, ( #207 ) ) ;
#209 = CALENDAR_DATE ( 2023, 27, 9 ) ;
#210 = CARTESIAN_POINT ( 'NONE',  ( 1.326762908760390423E-13, 0.000000000000000000, 38.00000000000000000 ) ) ;
#211 = APPROVAL_ROLE ( '' ) ;
#212 = CC_DESIGN_SECURITY_CLASSIFICATION ( #79, ( #207 ) ) ;
#213 = APPROVAL ( #129, 'UNSPECIFIED' ) ;
#214 = COORDINATED_UNIVERSAL_TIME_OFFSET ( 1, 0, .AHEAD. ) ;
#215 = PERSON_AND_ORGANIZATION_ROLE ( 'classification_officer' ) ;
#216 = PERSON_AND_ORGANIZATION_ROLE ( 'design_owner' ) ;
#217 = APPROVAL_PERSON_ORGANIZATION ( #270, #213, #18 ) ;
#218 = ADVANCED_FACE ( 'NONE', ( #86, #141 ), #162, .T. ) ;
#219 = ORIENTED_EDGE ( 'NONE', *, *, #222, .F. ) ;
#220 = EDGE_LOOP ( 'NONE', ( #221 ) ) ;
#221 = ORIENTED_EDGE ( 'NONE', *, *, #166, .F. ) ;
#222 = EDGE_CURVE ( 'NONE', #252, #252, #7, .T. ) ;
#223 = DIRECTION ( 'NONE',  ( 1.000000000000000000, 0.000000000000000000, -3.502807018799321714E-15 ) ) ;
#224 = CARTESIAN_POINT ( 'NONE',  ( 1.326762908760390423E-13, 1.199999999999993072, 38.00000000000000000 ) ) ;
#225 = EDGE_LOOP ( 'NONE', ( #137 ) ) ;
#226 =( NAMED_UNIT ( * ) SI_UNIT ( $, .STERADIAN. ) SOLID_ANGLE_UNIT ( ) );
#227 = CYLINDRICAL_SURFACE ( 'NONE', #191, 0.3249999999999997891 ) ;
#228 = MECHANICAL_CONTEXT ( 'NONE', #31, 'mechanical' ) ;
#229 = DIRECTION ( 'NONE',  ( -3.491481338843133355E-15, 0.000000000000000000, -1.000000000000000000 ) ) ;
#230 = DIRECTION ( 'NONE',  ( 3.491481338843133355E-15, -0.000000000000000000, 1.000000000000000000 ) ) ;
#231 = DIRECTION ( 'NONE',  ( 3.491481338843133355E-15, -0.000000000000000000, 1.000000000000000000 ) ) ;
#232 = APPLICATION_PROTOCOL_DEFINITION ( 'international standard', 'config_control_design', 1994, #273 ) ;
#233 = FACE_BOUND ( 'NONE', #225, .T. ) ;
#234 = ADVANCED_FACE ( 'NONE', ( #168, #17 ), #104, .T. ) ;
#235 = SECURITY_CLASSIFICATION_LEVEL ( 'unclassified' ) ;
#236 = CIRCLE ( 'NONE', #206, 0.5949999999999999734 ) ;
#237 = PERSON_AND_ORGANIZATION ( #62, #64 ) ;
#238 = APPROVAL_DATE_TIME ( #108, #213 ) ;
#239 = PERSON_AND_ORGANIZATION ( #62, #64 ) ;
#240 = APPROVAL ( #50, 'UNSPECIFIED' ) ;
#241 = ORIENTED_EDGE ( 'NONE', *, *, #190, .T. ) ;
#242 = ADVANCED_FACE ( 'NONE', ( #88, #67 ), #22, .T. ) ;
#243 = ORIENTED_EDGE ( 'NONE', *, *, #170, .T. ) ;
#244 = ORIENTED_EDGE ( 'NONE', *, *, #194, .F. ) ;
#245 = DIRECTION ( 'NONE',  ( 3.491481338843133355E-15, -0.000000000000000000, 1.000000000000000000 ) ) ;
#246 = DIRECTION ( 'NONE',  ( 3.491481338843133355E-15, -0.000000000000000000, 1.000000000000000000 ) ) ;
#247 = CARTESIAN_POINT ( 'NONE',  ( 1.661532789090673539E-14, 0.000000000000000000, 4.758819045102516299 ) ) ;
#248 = EDGE_LOOP ( 'NONE', ( #28 ) ) ;
#249 = DIRECTION ( 'NONE',  ( -1.000000000000000000, 0.000000000000000000, 4.625929269271497155E-15 ) ) ;
#250 = ADVANCED_FACE ( 'NONE', ( #233, #60 ), #91, .T. ) ;
#251 = CARTESIAN_POINT ( 'NONE',  ( 0.3590741737109457432, 0.000000000000000000, 4.758819045102515410 ) ) ;
#252 = VERTEX_POINT ( 'NONE', #42 ) ;
#253 = AXIS2_PLACEMENT_3D ( 'NONE', #177, #204, #5 ) ;
#254 = DIRECTION ( 'NONE',  ( 1.000000000000000000, 0.000000000000000000, 0.000000000000000000 ) ) ;
#255 = PERSON_AND_ORGANIZATION ( #62, #64 ) ;
#256 = CARTESIAN_POINT ( 'NONE',  ( 1.316288464743861212E-13, 0.000000000000000000, 37.69999999999999574 ) ) ;
#257 = PERSON_AND_ORGANIZATION ( #62, #64 ) ;
#258 = ADVANCED_FACE ( 'NONE', ( #205, #44 ), #126, .T. ) ;
#259 = CARTESIAN_POINT ( 'NONE',  ( 1.326762908760390423E-13, 0.000000000000000000, 38.00000000000000000 ) ) ;
#260 = CIRCLE ( 'NONE', #253, 1.499999999999996225 ) ;
#261 = DIRECTION ( 'NONE',  ( 3.491481338843133355E-15, -0.000000000000000000, 1.000000000000000000 ) ) ;
#262 = ORIENTED_EDGE ( 'NONE', *, *, #274, .T. ) ;
#263 = FACE_OUTER_BOUND ( 'NONE', #83, .T. ) ;
#264 = CARTESIAN_POINT ( 'NONE',  ( 0.000000000000000000, 0.000000000000000000, 0.000000000000000000 ) ) ;
#265 = CONICAL_SURFACE ( 'NONE', #46, 0.3590741737109291454, 0.2617993877991430240 ) ;
#266 = VERTEX_POINT ( 'NONE', #251 ) ;
#267 = CARTESIAN_POINT ( 'NONE',  ( 1.200000000000125855, 0.000000000000000000, 37.99999999999999289 ) ) ;
#268 = DIRECTION ( 'NONE',  ( 3.491481338843133355E-15, -0.000000000000000000, 1.000000000000000000 ) ) ;
#269 = AXIS2_PLACEMENT_3D ( 'NONE', #148, #229, #123 ) ;
#270 = PERSON_AND_ORGANIZATION ( #62, #64 ) ;
#271 = DIRECTION ( 'NONE',  ( 1.000000000000000000, 0.000000000000000000, 0.000000000000000000 ) ) ;
#272 = SHAPE_DEFINITION_REPRESENTATION ( #1, #68 ) ;
#273 = APPLICATION_CONTEXT ( 'configuration controlled 3d designs of mechanical parts and assemblies' ) ;
#274 = EDGE_CURVE ( 'NONE', #107, #107, #78, .T. ) ;
#275 = AXIS2_PLACEMENT_3D ( 'NONE', #63, #231, #38 ) ;
ENDSEC;
END-ISO-10303-21;
