ISO-10303-21;
HEADER;
FILE_DESCRIPTION (( 'STEP AP203' ),
    '1' );
FILE_NAME ('965998.step',
    '2023-09-27T05:43:23',
    ( '' ),
    ( '' ),
    'SwSTEP 2.0',
    'SolidWorks 2022',
    '' );
FILE_SCHEMA (( 'CONFIG_CONTROL_DESIGN' ));
ENDSEC;

DATA;
#1 = EDGE_LOOP ( 'NONE', ( #95 ) ) ;
#2 = CARTESIAN_POINT ( 'NONE',  ( 1.326762908760390423E-13, 0.000000000000000000, 38.00000000000000000 ) ) ;
#3 = EDGE_CURVE ( 'NONE', #105, #105, #256, .T. ) ;
#4 = EDGE_LOOP ( 'NONE', ( #33 ) ) ;
#5 = ORIENTED_EDGE ( 'NONE', *, *, #37, .T. ) ;
#6 = ORIENTED_EDGE ( 'NONE', *, *, #125, .F. ) ;
#7 = PERSON_AND_ORGANIZATION_ROLE ( 'creator' ) ;
#8 = PERSON_AND_ORGANIZATION ( #241, #21 ) ;
#9 = FACE_OUTER_BOUND ( 'NONE', #177, .T. ) ;
#10 = AXIS2_PLACEMENT_3D ( 'NONE', #244, #201, #156 ) ;
#11 = ORIENTED_EDGE ( 'NONE', *, *, #179, .T. ) ;
#12 = DIRECTION ( 'NONE',  ( -1.000000000000000000, 0.000000000000000000, 3.510749891857823168E-15 ) ) ;
#13 = APPROVAL_STATUS ( 'not_yet_approved' ) ;
#14 = FACE_BOUND ( 'NONE', #221, .T. ) ;
#15 = COORDINATED_UNIVERSAL_TIME_OFFSET ( 1, 0, .AHEAD. ) ;
#16 = FACE_BOUND ( 'NONE', #69, .T. ) ;
#17 = AXIS2_PLACEMENT_3D ( 'NONE', #163, #57, #178 ) ;
#18 = CIRCLE ( 'NONE', #237, 0.3199999999999995626 ) ;
#19 = CARTESIAN_POINT ( 'NONE',  ( 9.137681867202484530E-16, 0.000000000000000000, 0.2617136103677461523 ) ) ;
#20 = DIRECTION ( 'NONE',  ( 1.000000000000000000, 0.000000000000000000, -3.469446951953614189E-15 ) ) ;
#21 = ORGANIZATION ( 'UNSPECIFIED', 'UNSPECIFIED', '' ) ;
#22 = AXIS2_PLACEMENT_3D ( 'NONE', #174, #266, #242 ) ;
#23 = CARTESIAN_POINT ( 'NONE',  ( 0.3200000000000009504, 0.000000000000000000, 0.2617136103677449865 ) ) ;
#24 = CARTESIAN_POINT ( 'NONE',  ( 0.3199999999999998956, 0.000000000000000000, -1.117274028429802516E-15 ) ) ;
#25 = CC_DESIGN_PERSON_AND_ORGANIZATION_ASSIGNMENT ( #100, #7, ( #273 ) ) ;
#26 = CARTESIAN_POINT ( 'NONE',  ( 0.3200000000000135514, 0.000000000000000000, 3.999999999999995559 ) ) ;
#27 = VERTEX_POINT ( 'NONE', #238 ) ;
#28 = ORIENTED_EDGE ( 'NONE', *, *, #148, .T. ) ;
#29 = CARTESIAN_POINT ( 'NONE',  ( 1.396592535537252080E-14, 0.000000000000000000, 3.999999999999996447 ) ) ;
#30 = EDGE_LOOP ( 'NONE', ( #222 ) ) ;
#31 = ORIENTED_EDGE ( 'NONE', *, *, #3, .T. ) ;
#32 = FACE_BOUND ( 'NONE', #151, .T. ) ;
#33 = ORIENTED_EDGE ( 'NONE', *, *, #155, .F. ) ;
#34 = DIRECTION ( 'NONE',  ( 3.491481338843133355E-15, -0.000000000000000000, 1.000000000000000000 ) ) ;
#35 = CONICAL_SURFACE ( 'NONE', #10, 0.3199999999999998956, 1.047197551196606735 ) ;
#36 = CARTESIAN_POINT ( 'NONE',  ( 1.326762908760390423E-13, 1.199999999999993072, 38.00000000000000000 ) ) ;
#37 = EDGE_CURVE ( 'NONE', #128, #128, #18, .T. ) ;
#38 = FACE_BOUND ( 'NONE', #4, .T. ) ;
#39 = APPROVAL_PERSON_ORGANIZATION ( #236, #58, #123 ) ;
#40 = CARTESIAN_POINT ( 'NONE',  ( 5.005276100956706904E-16, 0.000000000000000000, 0.1433568051838751689 ) ) ;
#41 = ADVANCED_FACE ( 'NONE', ( #131, #32 ), #35, .T. ) ;
#42 = LOCAL_TIME ( 7, 43, 23.00000000000000000, #142 ) ;
#43 = CARTESIAN_POINT ( 'NONE',  ( 1.500000000000029754, 0.000000000000000000, 8.535472450518781784 ) ) ;
#44 = MANIFOLD_SOLID_BREP ( 'Corps-Déplacer/Copier1', #183 ) ;
#45 = EDGE_LOOP ( 'NONE', ( #133 ) ) ;
#46 = DIRECTION ( 'NONE',  ( 1.000000000000000000, 0.000000000000000000, -2.710505431213764635E-15 ) ) ;
#47 = PRODUCT_DEFINITION ( 'UNKNOWN', '', #273, #248 ) ;
#48 = EDGE_LOOP ( 'NONE', ( #98 ) ) ;
#49 = DIRECTION ( 'NONE',  ( 3.491481338843133355E-15, -0.000000000000000000, 1.000000000000000000 ) ) ;
#50 = PLANE ( 'NONE',  #189 ) ;
#51 = DIRECTION ( 'NONE',  ( -1.000000000000000000, 0.000000000000000000, 4.625929269271497155E-15 ) ) ;
#52 = DATE_AND_TIME ( #126, #129 ) ;
#53 = AXIS2_PLACEMENT_3D ( 'NONE', #230, #137, #96 ) ;
#54 = DIRECTION ( 'NONE',  ( 1.000000000000000000, 0.000000000000000000, -4.625929269271491633E-15 ) ) ;
#55 = SHAPE_DEFINITION_REPRESENTATION ( #85, #86 ) ;
#56 = CARTESIAN_POINT ( 'NONE',  ( 2.980144277919601707E-14, 0.000000000000000000, 8.535472450518787113 ) ) ;
#57 = DIRECTION ( 'NONE',  ( 3.491481338843133355E-15, -0.000000000000000000, 1.000000000000000000 ) ) ;
#58 = APPROVAL ( #141, 'UNSPECIFIED' ) ;
#59 = CARTESIAN_POINT ( 'NONE',  ( 1.396592535537253342E-14, 0.000000000000000000, 4.000000000000000000 ) ) ;
#60 = VERTEX_POINT ( 'NONE', #214 ) ;
#61 = APPROVAL ( #13, 'UNSPECIFIED' ) ;
#62 = PERSON_AND_ORGANIZATION ( #241, #21 ) ;
#63 = TOROIDAL_SURFACE ( 'NONE', #66, 1.319999999999999618, 1.000000000000000000 ) ;
#64 = APPROVAL_DATE_TIME ( #258, #261 ) ;
#65 =( LENGTH_UNIT ( ) NAMED_UNIT ( * ) SI_UNIT ( .MILLI., .METRE. ) );
#66 = AXIS2_PLACEMENT_3D ( 'NONE', #59, #118, #205 ) ;
#67 = CIRCLE ( 'NONE', #76, 0.3540741737109293075 ) ;
#68 = FACE_OUTER_BOUND ( 'NONE', #173, .T. ) ;
#69 = EDGE_LOOP ( 'NONE', ( #149 ) ) ;
#70 = EDGE_CURVE ( 'NONE', #211, #211, #168, .T. ) ;
#71 = CIRCLE ( 'NONE', #235, 0.3199999999999998956 ) ;
#72 = APPROVAL_ROLE ( '' ) ;
#73 = ORIENTED_EDGE ( 'NONE', *, *, #37, .F. ) ;
#74 = CARTESIAN_POINT ( 'NONE',  ( 4.132405766245777626E-16, 0.000000000000000000, 0.1183568051838709834 ) ) ;
#75 = UNCERTAINTY_MEASURE_WITH_UNIT (LENGTH_MEASURE( 1.000000000000000082E-05 ), #65, 'distance_accuracy_value', 'NONE');
#76 = AXIS2_PLACEMENT_3D ( 'NONE', #119, #138, #185 ) ;
#77 = FACE_OUTER_BOUND ( 'NONE', #267, .T. ) ;
#78 = DATE_AND_TIME ( #250, #147 ) ;
#79 = CARTESIAN_POINT ( 'NONE',  ( 0.000000000000000000, 0.000000000000000000, 0.000000000000000000 ) ) ;
#80 = CYLINDRICAL_SURFACE ( 'NONE', #270, 1.499999999999998002 ) ;
#81 = APPROVAL_PERSON_ORGANIZATION ( #169, #261, #255 ) ;
#82 = CALENDAR_DATE ( 2023, 27, 9 ) ;
#83 = COORDINATED_UNIVERSAL_TIME_OFFSET ( 1, 0, .AHEAD. ) ;
#84 = VERTEX_POINT ( 'NONE', #257 ) ;
#85 = PRODUCT_DEFINITION_SHAPE ( 'NONE', 'NONE',  #47 ) ;
#86 = ADVANCED_BREP_SHAPE_REPRESENTATION ( '965998', ( #44, #243 ), #87 ) ;
#87 =( GEOMETRIC_REPRESENTATION_CONTEXT ( 3 ) GLOBAL_UNCERTAINTY_ASSIGNED_CONTEXT ( ( #75 ) ) GLOBAL_UNIT_ASSIGNED_CONTEXT ( ( #65, #88, #188 ) ) REPRESENTATION_CONTEXT ( 'NONE', 'WORKASPACE' ) );
#88 =( NAMED_UNIT ( * ) PLANE_ANGLE_UNIT ( ) SI_UNIT ( $, .RADIAN. ) );
#89 = ORIENTED_EDGE ( 'NONE', *, *, #213, .T. ) ;
#90 = ADVANCED_FACE ( 'NONE', ( #9 ), #50, .F. ) ;
#91 = AXIS2_PLACEMENT_3D ( 'NONE', #36, #164, #251 ) ;
#92 = ORIENTED_EDGE ( 'NONE', *, *, #155, .T. ) ;
#93 = PERSON_AND_ORGANIZATION ( #241, #21 ) ;
#94 = DIRECTION ( 'NONE',  ( 1.000000000000000000, 0.000000000000000000, -3.491481338843133355E-15 ) ) ;
#95 = ORIENTED_EDGE ( 'NONE', *, *, #175, .F. ) ;
#96 = DIRECTION ( 'NONE',  ( 1.000000000000000000, 0.000000000000000000, 0.000000000000000000 ) ) ;
#97 = CC_DESIGN_PERSON_AND_ORGANIZATION_ASSIGNMENT ( #62, #145, ( #47 ) ) ;
#98 = ORIENTED_EDGE ( 'NONE', *, *, #70, .T. ) ;
#99 = FACE_OUTER_BOUND ( 'NONE', #30, .T. ) ;
#100 = PERSON_AND_ORGANIZATION ( #241, #21 ) ;
#101 = AXIS2_PLACEMENT_3D ( 'NONE', #74, #157, #225 ) ;
#102 = CARTESIAN_POINT ( 'NONE',  ( 1.486958722148516871E-14, 0.000000000000000000, 4.258819045102516299 ) ) ;
#103 = CC_DESIGN_PERSON_AND_ORGANIZATION_ASSIGNMENT ( #8, #139, ( #273 ) ) ;
#104 = FACE_OUTER_BOUND ( 'NONE', #239, .T. ) ;
#105 = VERTEX_POINT ( 'NONE', #107 ) ;
#106 = PRODUCT ( '965998', '965998', '', ( #215 ) ) ;
#107 = CARTESIAN_POINT ( 'NONE',  ( 1.500000000000127676, 0.000000000000000000, 37.69999999999998863 ) ) ;
#108 = CONICAL_SURFACE ( 'NONE', #114, 0.5250000000000001332, 1.047197551196606513 ) ;
#109 = ADVANCED_FACE ( 'NONE', ( #68, #176 ), #112, .T. ) ;
#110 = CARTESIAN_POINT ( 'NONE',  ( 0.5250000000000006883, 0.000000000000000000, 0.1433568051838733370 ) ) ;
#111 = ORIENTED_EDGE ( 'NONE', *, *, #175, .T. ) ;
#112 = CYLINDRICAL_SURFACE ( 'NONE', #167, 0.3199999999999997291 ) ;
#113 = ADVANCED_FACE ( 'NONE', ( #198, #104 ), #121, .T. ) ;
#114 = AXIS2_PLACEMENT_3D ( 'NONE', #40, #208, #12 ) ;
#115 = APPLICATION_CONTEXT ( 'configuration controlled 3d designs of mechanical parts and assemblies' ) ;
#116 = DIRECTION ( 'NONE',  ( 1.000000000000000000, 0.000000000000000000, -3.510749891857823168E-15 ) ) ;
#117 = DIRECTION ( 'NONE',  ( 3.491481338843133355E-15, -0.000000000000000000, 1.000000000000000000 ) ) ;
#118 = DIRECTION ( 'NONE',  ( 3.491481338843133355E-15, -0.000000000000000000, 1.000000000000000000 ) ) ;
#119 = CARTESIAN_POINT ( 'NONE',  ( 1.486958722148516871E-14, 0.000000000000000000, 4.258819045102516299 ) ) ;
#120 = CC_DESIGN_APPROVAL ( #261, ( #47 ) ) ;
#121 = CYLINDRICAL_SURFACE ( 'NONE', #53, 0.5250000000000001332 ) ;
#122 = FACE_OUTER_BOUND ( 'NONE', #264, .T. ) ;
#123 = APPROVAL_ROLE ( '' ) ;
#124 = PERSON_AND_ORGANIZATION_ROLE ( 'design_owner' ) ;
#125 = EDGE_CURVE ( 'NONE', #60, #60, #67, .T. ) ;
#126 = CALENDAR_DATE ( 2023, 27, 9 ) ;
#127 = CC_DESIGN_DATE_AND_TIME_ASSIGNMENT ( #165, #254, ( #47 ) ) ;
#128 = VERTEX_POINT ( 'NONE', #26 ) ;
#129 = LOCAL_TIME ( 7, 43, 23.00000000000000000, #234 ) ;
#130 = EDGE_LOOP ( 'NONE', ( #6 ) ) ;
#131 = FACE_OUTER_BOUND ( 'NONE', #1, .T. ) ;
#132 = APPROVAL_DATE_TIME ( #52, #58 ) ;
#133 = ORIENTED_EDGE ( 'NONE', *, *, #213, .F. ) ;
#134 = CC_DESIGN_PERSON_AND_ORGANIZATION_ASSIGNMENT ( #135, #223, ( #136 ) ) ;
#135 = PERSON_AND_ORGANIZATION ( #241, #21 ) ;
#136 = SECURITY_CLASSIFICATION ( '', '', #229 ) ;
#137 = DIRECTION ( 'NONE',  ( 3.491481338843133355E-15, -0.000000000000000000, 1.000000000000000000 ) ) ;
#138 = DIRECTION ( 'NONE',  ( 3.491481338843133355E-15, -0.000000000000000000, 1.000000000000000000 ) ) ;
#139 = PERSON_AND_ORGANIZATION_ROLE ( 'design_supplier' ) ;
#140 = DIRECTION ( 'NONE',  ( 3.491481338843133355E-15, -0.000000000000000000, 1.000000000000000000 ) ) ;
#141 = APPROVAL_STATUS ( 'not_yet_approved' ) ;
#142 = COORDINATED_UNIVERSAL_TIME_OFFSET ( 1, 0, .AHEAD. ) ;
#143 = VERTEX_POINT ( 'NONE', #23 ) ;
#144 = AXIS2_PLACEMENT_3D ( 'NONE', #19, #271, #268 ) ;
#145 = PERSON_AND_ORGANIZATION_ROLE ( 'creator' ) ;
#146 = DIRECTION ( 'NONE',  ( 0.000000000000000000, 0.000000000000000000, 1.000000000000000000 ) ) ;
#147 = LOCAL_TIME ( 7, 43, 23.00000000000000000, #227 ) ;
#148 = EDGE_CURVE ( 'NONE', #84, #84, #207, .T. ) ;
#149 = ORIENTED_EDGE ( 'NONE', *, *, #125, .T. ) ;
#150 = DIRECTION ( 'NONE',  ( 3.491481338843133355E-15, -0.000000000000000000, 1.000000000000000000 ) ) ;
#151 = EDGE_LOOP ( 'NONE', ( #11 ) ) ;
#152 = CC_DESIGN_SECURITY_CLASSIFICATION ( #136, ( #273 ) ) ;
#153 = AXIS2_PLACEMENT_3D ( 'NONE', #184, #245, #51 ) ;
#154 = AXIS2_PLACEMENT_3D ( 'NONE', #224, #34, #116 ) ;
#155 = EDGE_CURVE ( 'NONE', #143, #143, #220, .T. ) ;
#156 = DIRECTION ( 'NONE',  ( 1.000000000000000000, 0.000000000000000000, -3.491481338843134144E-15 ) ) ;
#157 = DIRECTION ( 'NONE',  ( 3.491481338843133355E-15, -0.000000000000000000, 1.000000000000000000 ) ) ;
#158 = APPROVAL_DATE_TIME ( #181, #61 ) ;
#159 = CC_DESIGN_APPROVAL ( #58, ( #273 ) ) ;
#160 = ADVANCED_FACE ( 'NONE', ( #252, #16 ), #247, .T. ) ;
#161 = CARTESIAN_POINT ( 'NONE',  ( 1.326762908760390423E-13, 0.000000000000000000, 38.00000000000000000 ) ) ;
#162 = DIRECTION ( 'NONE',  ( 1.000000000000000000, 0.000000000000000000, -3.491481338843134144E-15 ) ) ;
#163 = CARTESIAN_POINT ( 'NONE',  ( 1.326762908760390423E-13, 0.000000000000000000, 38.00000000000000000 ) ) ;
#164 = DIRECTION ( 'NONE',  ( -3.491481338843133355E-15, 0.000000000000000000, -1.000000000000000000 ) ) ;
#165 = DATE_AND_TIME ( #82, #193 ) ;
#166 = CARTESIAN_POINT ( 'NONE',  ( 0.000000000000000000, 0.000000000000000000, 0.000000000000000000 ) ) ;
#167 = AXIS2_PLACEMENT_3D ( 'NONE', #2, #150, #240 ) ;
#168 = CIRCLE ( 'NONE', #154, 0.5250000000000001332 ) ;
#169 = PERSON_AND_ORGANIZATION ( #241, #21 ) ;
#170 = CALENDAR_DATE ( 2023, 27, 9 ) ;
#171 = PRODUCT_RELATED_PRODUCT_CATEGORY ( 'detail', '', ( #106 ) ) ;
#172 = ORIENTED_EDGE ( 'NONE', *, *, #179, .F. ) ;
#173 = EDGE_LOOP ( 'NONE', ( #73 ) ) ;
#174 = CARTESIAN_POINT ( 'NONE',  ( 1.316288464743861212E-13, 0.000000000000000000, 37.69999999999999574 ) ) ;
#175 = EDGE_CURVE ( 'NONE', #27, #27, #187, .T. ) ;
#176 = FACE_OUTER_BOUND ( 'NONE', #197, .T. ) ;
#177 = EDGE_LOOP ( 'NONE', ( #172 ) ) ;
#178 = DIRECTION ( 'NONE',  ( 1.000000000000000000, 0.000000000000000000, -5.782411586589390376E-15 ) ) ;
#179 = EDGE_CURVE ( 'NONE', #253, #253, #71, .T. ) ;
#180 = EDGE_LOOP ( 'NONE', ( #31 ) ) ;
#181 = DATE_AND_TIME ( #246, #265 ) ;
#182 = CONICAL_SURFACE ( 'NONE', #153, 1.499999999999996225, 0.7853981633974504994 ) ;
#183 = CLOSED_SHELL ( 'NONE', ( #90, #41, #113, #191, #109, #196, #209, #218, #160, #233 ) ) ;
#184 = CARTESIAN_POINT ( 'NONE',  ( 1.316288464743861212E-13, 0.000000000000000000, 37.69999999999999574 ) ) ;
#185 = DIRECTION ( 'NONE',  ( 1.000000000000000000, 0.000000000000000000, -2.449661122972862797E-15 ) ) ;
#186 = CC_DESIGN_DATE_AND_TIME_ASSIGNMENT ( #78, #206, ( #136 ) ) ;
#187 = CIRCLE ( 'NONE', #101, 0.5250000000000001332 ) ;
#188 =( NAMED_UNIT ( * ) SI_UNIT ( $, .STERADIAN. ) SOLID_ANGLE_UNIT ( ) );
#189 = AXIS2_PLACEMENT_3D ( 'NONE', #195, #260, #94 ) ;
#190 = PERSON_AND_ORGANIZATION ( #241, #21 ) ;
#191 = ADVANCED_FACE ( 'NONE', ( #38, #228 ), #108, .T. ) ;
#192 = APPLICATION_PROTOCOL_DEFINITION ( 'international standard', 'config_control_design', 1994, #115 ) ;
#193 = LOCAL_TIME ( 7, 43, 23.00000000000000000, #83 ) ;
#194 = VERTEX_POINT ( 'NONE', #43 ) ;
#195 = CARTESIAN_POINT ( 'NONE',  ( 0.000000000000000000, 0.000000000000000000, 0.000000000000000000 ) ) ;
#196 = ADVANCED_FACE ( 'NONE', ( #14, #226 ), #182, .T. ) ;
#197 = EDGE_LOOP ( 'NONE', ( #92 ) ) ;
#198 = FACE_OUTER_BOUND ( 'NONE', #200, .T. ) ;
#199 = CC_DESIGN_APPROVAL ( #61, ( #136 ) ) ;
#200 = EDGE_LOOP ( 'NONE', ( #219 ) ) ;
#201 = DIRECTION ( 'NONE',  ( 3.491481338843133355E-15, -0.000000000000000000, 1.000000000000000000 ) ) ;
#202 = AXIS2_PLACEMENT_3D ( 'NONE', #56, #140, #20 ) ;
#203 = DIRECTION ( 'NONE',  ( 1.000000000000000000, 0.000000000000000000, -2.449661122972862797E-15 ) ) ;
#204 = CC_DESIGN_PERSON_AND_ORGANIZATION_ASSIGNMENT ( #190, #124, ( #106 ) ) ;
#205 = DIRECTION ( 'NONE',  ( 1.000000000000000000, 0.000000000000000000, -3.491481338843133355E-15 ) ) ;
#206 = DATE_TIME_ROLE ( 'classification_date' ) ;
#207 = CIRCLE ( 'NONE', #17, 1.199999999999993072 ) ;
#208 = DIRECTION ( 'NONE',  ( -3.491481338843133355E-15, 0.000000000000000000, -1.000000000000000000 ) ) ;
#209 = ADVANCED_FACE ( 'NONE', ( #122 ), #210, .F. ) ;
#210 = PLANE ( 'NONE',  #91 ) ;
#211 = VERTEX_POINT ( 'NONE', #110 ) ;
#212 = APPLICATION_CONTEXT ( 'configuration controlled 3d designs of mechanical parts and assemblies' ) ;
#213 = EDGE_CURVE ( 'NONE', #194, #194, #259, .T. ) ;
#214 = CARTESIAN_POINT ( 'NONE',  ( 0.3540741737109441845, 0.000000000000000000, 4.258819045102515410 ) ) ;
#215 = MECHANICAL_CONTEXT ( 'NONE', #115, 'mechanical' ) ;
#216 = DIRECTION ( 'NONE',  ( 1.000000000000000000, 0.000000000000000000, 0.000000000000000000 ) ) ;
#217 = AXIS2_PLACEMENT_3D ( 'NONE', #102, #231, #203 ) ;
#218 = ADVANCED_FACE ( 'NONE', ( #272, #77 ), #63, .F. ) ;
#219 = ORIENTED_EDGE ( 'NONE', *, *, #70, .F. ) ;
#220 = CIRCLE ( 'NONE', #144, 0.3200000000000000067 ) ;
#221 = EDGE_LOOP ( 'NONE', ( #263 ) ) ;
#222 = ORIENTED_EDGE ( 'NONE', *, *, #3, .F. ) ;
#223 = PERSON_AND_ORGANIZATION_ROLE ( 'classification_officer' ) ;
#224 = CARTESIAN_POINT ( 'NONE',  ( 5.005276100956706904E-16, 0.000000000000000000, 0.1433568051838751689 ) ) ;
#225 = DIRECTION ( 'NONE',  ( 1.000000000000000000, 0.000000000000000000, -3.484935554417691866E-15 ) ) ;
#226 = FACE_OUTER_BOUND ( 'NONE', #180, .T. ) ;
#227 = COORDINATED_UNIVERSAL_TIME_OFFSET ( 1, 0, .AHEAD. ) ;
#228 = FACE_OUTER_BOUND ( 'NONE', #48, .T. ) ;
#229 = SECURITY_CLASSIFICATION_LEVEL ( 'unclassified' ) ;
#230 = CARTESIAN_POINT ( 'NONE',  ( 1.326762908760390423E-13, 0.000000000000000000, 38.00000000000000000 ) ) ;
#231 = DIRECTION ( 'NONE',  ( 3.491481338843133355E-15, -0.000000000000000000, 1.000000000000000000 ) ) ;
#232 = APPROVAL_STATUS ( 'not_yet_approved' ) ;
#233 = ADVANCED_FACE ( 'NONE', ( #99, #269 ), #80, .T. ) ;
#234 = COORDINATED_UNIVERSAL_TIME_OFFSET ( 1, 0, .AHEAD. ) ;
#235 = AXIS2_PLACEMENT_3D ( 'NONE', #79, #117, #162 ) ;
#236 = PERSON_AND_ORGANIZATION ( #241, #21 ) ;
#237 = AXIS2_PLACEMENT_3D ( 'NONE', #29, #49, #46 ) ;
#238 = CARTESIAN_POINT ( 'NONE',  ( 0.5250000000000005773, 0.000000000000000000, 0.1183568051838691515 ) ) ;
#239 = EDGE_LOOP ( 'NONE', ( #111 ) ) ;
#240 = DIRECTION ( 'NONE',  ( 1.000000000000000000, 0.000000000000000000, 0.000000000000000000 ) ) ;
#241 = PERSON ( 'UNSPECIFIED', 'UNSPECIFIED', 'UNSPECIFIED', ('UNSPECIFIED'), ('UNSPECIFIED'), ('UNSPECIFIED') ) ;
#242 = DIRECTION ( 'NONE',  ( 1.000000000000000000, 0.000000000000000000, -4.625929269271497155E-15 ) ) ;
#243 = AXIS2_PLACEMENT_3D ( 'NONE', #166, #146, #216 ) ;
#244 = CARTESIAN_POINT ( 'NONE',  ( 0.000000000000000000, 0.000000000000000000, 0.000000000000000000 ) ) ;
#245 = DIRECTION ( 'NONE',  ( -3.491481338843133355E-15, 0.000000000000000000, -1.000000000000000000 ) ) ;
#246 = CALENDAR_DATE ( 2023, 27, 9 ) ;
#247 = CONICAL_SURFACE ( 'NONE', #217, 0.3540741737109293075, 0.2617993877991428575 ) ;
#248 = DESIGN_CONTEXT ( 'detailed design', #212, 'design' ) ;
#249 = DIRECTION ( 'NONE',  ( 3.491481338843133355E-15, -0.000000000000000000, 1.000000000000000000 ) ) ;
#250 = CALENDAR_DATE ( 2023, 27, 9 ) ;
#251 = DIRECTION ( 'NONE',  ( -1.000000000000000000, 0.000000000000000000, 3.491481338843133355E-15 ) ) ;
#252 = FACE_OUTER_BOUND ( 'NONE', #45, .T. ) ;
#253 = VERTEX_POINT ( 'NONE', #24 ) ;
#254 = DATE_TIME_ROLE ( 'creation_date' ) ;
#255 = APPROVAL_ROLE ( '' ) ;
#256 = CIRCLE ( 'NONE', #22, 1.499999999999996225 ) ;
#257 = CARTESIAN_POINT ( 'NONE',  ( 1.200000000000125855, 0.000000000000000000, 37.99999999999999289 ) ) ;
#258 = DATE_AND_TIME ( #170, #42 ) ;
#259 = CIRCLE ( 'NONE', #202, 1.500000000000000000 ) ;
#260 = DIRECTION ( 'NONE',  ( 3.491481338843133355E-15, -0.000000000000000000, 1.000000000000000000 ) ) ;
#261 = APPROVAL ( #232, 'UNSPECIFIED' ) ;
#262 = EDGE_LOOP ( 'NONE', ( #89 ) ) ;
#263 = ORIENTED_EDGE ( 'NONE', *, *, #148, .F. ) ;
#264 = EDGE_LOOP ( 'NONE', ( #28 ) ) ;
#265 = LOCAL_TIME ( 7, 43, 23.00000000000000000, #15 ) ;
#266 = DIRECTION ( 'NONE',  ( 3.491481338843133355E-15, -0.000000000000000000, 1.000000000000000000 ) ) ;
#267 = EDGE_LOOP ( 'NONE', ( #5 ) ) ;
#268 = DIRECTION ( 'NONE',  ( 1.000000000000000000, 0.000000000000000000, -3.557538378468061424E-15 ) ) ;
#269 = FACE_OUTER_BOUND ( 'NONE', #262, .T. ) ;
#270 = AXIS2_PLACEMENT_3D ( 'NONE', #161, #249, #54 ) ;
#271 = DIRECTION ( 'NONE',  ( 3.491481338843133355E-15, -0.000000000000000000, 1.000000000000000000 ) ) ;
#272 = FACE_OUTER_BOUND ( 'NONE', #130, .T. ) ;
#273 = PRODUCT_DEFINITION_FORMATION_WITH_SPECIFIED_SOURCE ( 'ANY', '', #106, .NOT_KNOWN. ) ;
#274 = APPLICATION_PROTOCOL_DEFINITION ( 'international standard', 'config_control_design', 1994, #212 ) ;
#275 = APPROVAL_PERSON_ORGANIZATION ( #93, #61, #72 ) ;
ENDSEC;
END-ISO-10303-21;
