ISO-10303-21;
HEADER;
FILE_DESCRIPTION (( 'STEP AP203' ),
    '1' );
FILE_NAME ('965997.step',
    '2023-09-27T05:46:14',
    ( '' ),
    ( '' ),
    'SwSTEP 2.0',
    'SolidWorks 2022',
    '' );
FILE_SCHEMA (( 'CONFIG_CONTROL_DESIGN' ));
ENDSEC;

DATA;
#1 = EDGE_LOOP ( 'NONE', ( #86 ) ) ;
#2 = VERTEX_POINT ( 'NONE', #212 ) ;
#3 = LOCAL_TIME ( 7, 46, 14.00000000000000000, #158 ) ;
#4 = EDGE_LOOP ( 'NONE', ( #89 ) ) ;
#5 = ORIENTED_EDGE ( 'NONE', *, *, #7, .T. ) ;
#6 = DIRECTION ( 'NONE',  ( 0.000000000000000000, 0.000000000000000000, 1.000000000000000000 ) ) ;
#7 = EDGE_CURVE ( 'NONE', #183, #183, #24, .T. ) ;
#8 = CIRCLE ( 'NONE', #261, 0.1750000000000000167 ) ;
#9 = DATE_AND_TIME ( #67, #148 ) ;
#10 = CALENDAR_DATE ( 2023, 27, 9 ) ;
#11 = CARTESIAN_POINT ( 'NONE',  ( 1.316288464743861212E-13, 0.000000000000000000, 37.69999999999999574 ) ) ;
#12 = MECHANICAL_CONTEXT ( 'NONE', #256, 'mechanical' ) ;
#13 = FACE_BOUND ( 'NONE', #211, .T. ) ;
#14 = DATE_AND_TIME ( #236, #3 ) ;
#15 = DIRECTION ( 'NONE',  ( -1.000000000000000000, 0.000000000000000000, 3.491481338843133355E-15 ) ) ;
#16 = TOROIDAL_SURFACE ( 'NONE', #45, 1.174999999999999822, 1.000000000000000000 ) ;
#17 = FACE_BOUND ( 'NONE', #107, .T. ) ;
#18 = CARTESIAN_POINT ( 'NONE',  ( 1.500000000000025757, 0.000000000000000000, 7.376619817616282937 ) ) ;
#19 = DIRECTION ( 'NONE',  ( 3.491481338843133355E-15, -0.000000000000000000, 1.000000000000000000 ) ) ;
#20 = CIRCLE ( 'NONE', #154, 1.199999999999993072 ) ;
#21 = FACE_OUTER_BOUND ( 'NONE', #69, .T. ) ;
#22 = ADVANCED_FACE ( 'NONE', ( #37, #138 ), #80, .T. ) ;
#23 = DIRECTION ( 'NONE',  ( 3.491481338843133355E-15, -0.000000000000000000, 1.000000000000000000 ) ) ;
#24 = CIRCLE ( 'NONE', #88, 0.2090741737109295950 ) ;
#25 = EDGE_LOOP ( 'NONE', ( #130 ) ) ;
#26 = PERSON ( 'UNSPECIFIED', 'UNSPECIFIED', 'UNSPECIFIED', ('UNSPECIFIED'), ('UNSPECIFIED'), ('UNSPECIFIED') ) ;
#27 =( LENGTH_UNIT ( ) NAMED_UNIT ( * ) SI_UNIT ( .MILLI., .METRE. ) );
#28 = CC_DESIGN_SECURITY_CLASSIFICATION ( #84, ( #163 ) ) ;
#29 = CARTESIAN_POINT ( 'NONE',  ( 0.000000000000000000, 0.000000000000000000, 0.000000000000000000 ) ) ;
#30 = ORIENTED_EDGE ( 'NONE', *, *, #188, .F. ) ;
#31 = DATE_TIME_ROLE ( 'classification_date' ) ;
#32 = CYLINDRICAL_SURFACE ( 'NONE', #83, 0.1749999999999999056 ) ;
#33 = PERSON_AND_ORGANIZATION_ROLE ( 'creator' ) ;
#34 = CARTESIAN_POINT ( 'NONE',  ( 0.000000000000000000, 0.000000000000000000, 0.000000000000000000 ) ) ;
#35 = APPROVAL ( #76, 'UNSPECIFIED' ) ;
#36 = APPROVAL_ROLE ( '' ) ;
#37 = FACE_OUTER_BOUND ( 'NONE', #65, .T. ) ;
#38 = AXIS2_PLACEMENT_3D ( 'NONE', #60, #226, #166 ) ;
#39 = CARTESIAN_POINT ( 'NONE',  ( 1.200000000000125855, 0.000000000000000000, 37.99999999999999289 ) ) ;
#40 = APPROVAL_PERSON_ORGANIZATION ( #180, #35, #234 ) ;
#41 = VERTEX_POINT ( 'NONE', #18 ) ;
#42 = ADVANCED_BREP_SHAPE_REPRESENTATION ( '965997', ( #231, #103 ), #218 ) ;
#43 = ADVANCED_FACE ( 'NONE', ( #13, #235 ), #61, .T. ) ;
#44 = UNCERTAINTY_MEASURE_WITH_UNIT (LENGTH_MEASURE( 1.000000000000000082E-05 ), #27, 'distance_accuracy_value', 'NONE');
#45 = AXIS2_PLACEMENT_3D ( 'NONE', #62, #19, #251 ) ;
#46 = ORIENTED_EDGE ( 'NONE', *, *, #7, .F. ) ;
#47 = PERSON_AND_ORGANIZATION ( #26, #257 ) ;
#48 = FACE_OUTER_BOUND ( 'NONE', #230, .T. ) ;
#49 = PERSON_AND_ORGANIZATION_ROLE ( 'design_owner' ) ;
#50 = CYLINDRICAL_SURFACE ( 'NONE', #229, 1.499999999999998002 ) ;
#51 = APPROVAL_DATE_TIME ( #9, #56 ) ;
#52 = DIRECTION ( 'NONE',  ( 1.000000000000000000, 0.000000000000000000, -3.491481338843133750E-15 ) ) ;
#53 = AXIS2_PLACEMENT_3D ( 'NONE', #34, #97, #179 ) ;
#54 = FACE_OUTER_BOUND ( 'NONE', #152, .T. ) ;
#55 = APPROVAL_DATE_TIME ( #243, #35 ) ;
#56 = APPROVAL ( #92, 'UNSPECIFIED' ) ;
#57 = AXIS2_PLACEMENT_3D ( 'NONE', #82, #126, #252 ) ;
#58 = CARTESIAN_POINT ( 'NONE',  ( 0.1750000000000078437, 0.000000000000000000, 2.300000000000002931 ) ) ;
#59 = PRODUCT_RELATED_PRODUCT_CATEGORY ( 'detail', '', ( #247 ) ) ;
#60 = CARTESIAN_POINT ( 'NONE',  ( 2.418969229021948241E-16, 0.000000000000000000, 0.06928203230275459257 ) ) ;
#61 = CONICAL_SURFACE ( 'NONE', #168, 0.2949999999999999845, 1.047197551196600740 ) ;
#62 = CARTESIAN_POINT ( 'NONE',  ( 8.030407079339206717E-15, 0.000000000000000000, 2.299999999999999822 ) ) ;
#63 = EDGE_LOOP ( 'NONE', ( #173 ) ) ;
#64 = APPLICATION_PROTOCOL_DEFINITION ( 'international standard', 'config_control_design', 1994, #256 ) ;
#65 = EDGE_LOOP ( 'NONE', ( #175 ) ) ;
#66 = ORIENTED_EDGE ( 'NONE', *, *, #188, .T. ) ;
#67 = CALENDAR_DATE ( 2023, 27, 9 ) ;
#68 = ORIENTED_EDGE ( 'NONE', *, *, #90, .T. ) ;
#69 = EDGE_LOOP ( 'NONE', ( #151 ) ) ;
#70 = APPLICATION_PROTOCOL_DEFINITION ( 'international standard', 'config_control_design', 1994, #146 ) ;
#71 = CARTESIAN_POINT ( 'NONE',  ( 0.000000000000000000, 0.000000000000000000, 0.000000000000000000 ) ) ;
#72 = DIRECTION ( 'NONE',  ( 3.491481338843133355E-15, -0.000000000000000000, 1.000000000000000000 ) ) ;
#73 = DIRECTION ( 'NONE',  ( 3.491481338843133355E-15, -0.000000000000000000, 1.000000000000000000 ) ) ;
#74 = CARTESIAN_POINT ( 'NONE',  ( 8.934068945451840430E-15, 0.000000000000000000, 2.558819045102515677 ) ) ;
#75 = AXIS2_PLACEMENT_3D ( 'NONE', #266, #262, #15 ) ;
#76 = APPROVAL_STATUS ( 'not_yet_approved' ) ;
#77 = DIRECTION ( 'NONE',  ( -1.000000000000000000, 0.000000000000000000, 3.491498521563489089E-15 ) ) ;
#78 = CARTESIAN_POINT ( 'NONE',  ( 1.500000000000127676, 0.000000000000000000, 37.69999999999998863 ) ) ;
#79 = ADVANCED_FACE ( 'NONE', ( #242, #54 ), #106, .T. ) ;
#80 = CONICAL_SURFACE ( 'NONE', #147, 0.2090741737109295950, 0.2617993877991428575 ) ;
#81 = DIRECTION ( 'NONE',  ( 1.000000000000000000, 0.000000000000000000, 0.000000000000000000 ) ) ;
#82 = CARTESIAN_POINT ( 'NONE',  ( 0.000000000000000000, 0.000000000000000000, 0.000000000000000000 ) ) ;
#83 = AXIS2_PLACEMENT_3D ( 'NONE', #117, #244, #195 ) ;
#84 = SECURITY_CLASSIFICATION ( '', '', #193 ) ;
#85 = ADVANCED_FACE ( 'NONE', ( #221 ), #113, .F. ) ;
#86 = ORIENTED_EDGE ( 'NONE', *, *, #238, .T. ) ;
#87 = ORIENTED_EDGE ( 'NONE', *, *, #271, .T. ) ;
#88 = AXIS2_PLACEMENT_3D ( 'NONE', #74, #203, #156 ) ;
#89 = ORIENTED_EDGE ( 'NONE', *, *, #263, .T. ) ;
#90 = EDGE_CURVE ( 'NONE', #41, #41, #177, .T. ) ;
#91 = PERSON_AND_ORGANIZATION ( #26, #257 ) ;
#92 = APPROVAL_STATUS ( 'not_yet_approved' ) ;
#93 = APPROVAL_PERSON_ORGANIZATION ( #219, #114, #36 ) ;
#94 = FACE_OUTER_BOUND ( 'NONE', #190, .T. ) ;
#95 = COORDINATED_UNIVERSAL_TIME_OFFSET ( 1, 0, .AHEAD. ) ;
#96 = DATE_AND_TIME ( #10, #270 ) ;
#97 = DIRECTION ( 'NONE',  ( 3.491481338843133355E-15, -0.000000000000000000, 1.000000000000000000 ) ) ;
#98 = DATE_TIME_ROLE ( 'creation_date' ) ;
#99 = FACE_OUTER_BOUND ( 'NONE', #153, .T. ) ;
#100 = ADVANCED_FACE ( 'NONE', ( #260, #48 ), #32, .T. ) ;
#101 = VERTEX_POINT ( 'NONE', #78 ) ;
#102 = DIRECTION ( 'NONE',  ( 1.000000000000000000, 0.000000000000000000, -5.782411586589390376E-15 ) ) ;
#103 = AXIS2_PLACEMENT_3D ( 'NONE', #29, #6, #241 ) ;
#104 = APPROVAL_PERSON_ORGANIZATION ( #112, #56, #159 ) ;
#105 = ADVANCED_FACE ( 'NONE', ( #94, #17 ), #240, .T. ) ;
#106 = CONICAL_SURFACE ( 'NONE', #246, 1.499999999999996225, 0.7853981633974504994 ) ;
#107 = EDGE_LOOP ( 'NONE', ( #132 ) ) ;
#108 = ORIENTED_EDGE ( 'NONE', *, *, #250, .F. ) ;
#109 = CC_DESIGN_PERSON_AND_ORGANIZATION_ASSIGNMENT ( #47, #197, ( #84 ) ) ;
#110 = PERSON_AND_ORGANIZATION_ROLE ( 'design_supplier' ) ;
#111 = EDGE_LOOP ( 'NONE', ( #200 ) ) ;
#112 = PERSON_AND_ORGANIZATION ( #26, #257 ) ;
#113 = PLANE ( 'NONE',  #75 ) ;
#114 = APPROVAL ( #155, 'UNSPECIFIED' ) ;
#115 = CIRCLE ( 'NONE', #38, 0.2949999999999999845 ) ;
#116 = CALENDAR_DATE ( 2023, 27, 9 ) ;
#117 = CARTESIAN_POINT ( 'NONE',  ( 1.326762908760390423E-13, 0.000000000000000000, 38.00000000000000000 ) ) ;
#118 = AXIS2_PLACEMENT_3D ( 'NONE', #220, #72, #264 ) ;
#119 = ADVANCED_FACE ( 'NONE', ( #99, #237 ), #50, .T. ) ;
#120 = DIRECTION ( 'NONE',  ( 1.000000000000000000, 0.000000000000000000, -3.562378566738085772E-15 ) ) ;
#121 = VERTEX_POINT ( 'NONE', #205 ) ;
#122 = CC_DESIGN_PERSON_AND_ORGANIZATION_ASSIGNMENT ( #265, #49, ( #247 ) ) ;
#123 = FACE_OUTER_BOUND ( 'NONE', #25, .T. ) ;
#124 = CC_DESIGN_APPROVAL ( #56, ( #84 ) ) ;
#125 = CARTESIAN_POINT ( 'NONE',  ( 0.1749999999999999611, 0.000000000000000000, -6.110092342975482386E-16 ) ) ;
#126 = DIRECTION ( 'NONE',  ( 3.491481338843133355E-15, -0.000000000000000000, 1.000000000000000000 ) ) ;
#127 = DESIGN_CONTEXT ( 'detailed design', #146, 'design' ) ;
#128 =( NAMED_UNIT ( * ) SI_UNIT ( $, .STERADIAN. ) SOLID_ANGLE_UNIT ( ) );
#129 = AXIS2_PLACEMENT_3D ( 'NONE', #71, #73, #52 ) ;
#130 = ORIENTED_EDGE ( 'NONE', *, *, #144, .F. ) ;
#131 = VERTEX_POINT ( 'NONE', #172 ) ;
#132 = ORIENTED_EDGE ( 'NONE', *, *, #144, .T. ) ;
#133 = EDGE_LOOP ( 'NONE', ( #258 ) ) ;
#134 = COORDINATED_UNIVERSAL_TIME_OFFSET ( 1, 0, .AHEAD. ) ;
#135 = PERSON_AND_ORGANIZATION ( #26, #257 ) ;
#136 = CARTESIAN_POINT ( 'NONE',  ( 1.326762908760390423E-13, 0.000000000000000000, 38.00000000000000000 ) ) ;
#137 = LOCAL_TIME ( 7, 46, 14.00000000000000000, #216 ) ;
#138 = FACE_BOUND ( 'NONE', #191, .T. ) ;
#139 = DIRECTION ( 'NONE',  ( -3.491481338843133355E-15, 0.000000000000000000, -1.000000000000000000 ) ) ;
#140 = PERSON_AND_ORGANIZATION_ROLE ( 'creator' ) ;
#141 = CARTESIAN_POINT ( 'NONE',  ( 8.934068945451840430E-15, 0.000000000000000000, 2.558819045102515677 ) ) ;
#142 = CARTESIAN_POINT ( 'NONE',  ( 5.419852014517688603E-16, 0.000000000000000000, 0.1552307312721740162 ) ) ;
#143 = VERTEX_POINT ( 'NONE', #39 ) ;
#144 = EDGE_CURVE ( 'NONE', #185, #185, #274, .T. ) ;
#145 = CARTESIAN_POINT ( 'NONE',  ( 0.2090741737109385601, 0.000000000000000000, 2.558819045102514789 ) ) ;
#146 = APPLICATION_CONTEXT ( 'configuration controlled 3d designs of mechanical parts and assemblies' ) ;
#147 = AXIS2_PLACEMENT_3D ( 'NONE', #141, #160, #164 ) ;
#148 = LOCAL_TIME ( 7, 46, 14.00000000000000000, #95 ) ;
#149 = CARTESIAN_POINT ( 'NONE',  ( 8.030407079339217761E-15, 0.000000000000000000, 2.300000000000003375 ) ) ;
#150 = ADVANCED_FACE ( 'NONE', ( #123 ), #169, .F. ) ;
#151 = ORIENTED_EDGE ( 'NONE', *, *, #250, .T. ) ;
#152 = EDGE_LOOP ( 'NONE', ( #66 ) ) ;
#153 = EDGE_LOOP ( 'NONE', ( #30 ) ) ;
#154 = AXIS2_PLACEMENT_3D ( 'NONE', #187, #23, #102 ) ;
#155 = APPROVAL_STATUS ( 'not_yet_approved' ) ;
#156 = DIRECTION ( 'NONE',  ( 1.000000000000000000, 0.000000000000000000, -4.148583837942778707E-15 ) ) ;
#157 = CC_DESIGN_DATE_AND_TIME_ASSIGNMENT ( #96, #31, ( #84 ) ) ;
#158 = COORDINATED_UNIVERSAL_TIME_OFFSET ( 1, 0, .AHEAD. ) ;
#159 = APPROVAL_ROLE ( '' ) ;
#160 = DIRECTION ( 'NONE',  ( 3.491481338843133355E-15, -0.000000000000000000, 1.000000000000000000 ) ) ;
#161 = DIRECTION ( 'NONE',  ( 3.491481338843133355E-15, -0.000000000000000000, 1.000000000000000000 ) ) ;
#162 = CC_DESIGN_PERSON_AND_ORGANIZATION_ASSIGNMENT ( #135, #140, ( #163 ) ) ;
#163 = PRODUCT_DEFINITION_FORMATION_WITH_SPECIFIED_SOURCE ( 'ANY', '', #247, .NOT_KNOWN. ) ;
#164 = DIRECTION ( 'NONE',  ( 1.000000000000000000, 0.000000000000000000, -4.148583837942778707E-15 ) ) ;
#165 = COORDINATED_UNIVERSAL_TIME_OFFSET ( 1, 0, .AHEAD. ) ;
#166 = DIRECTION ( 'NONE',  ( 1.000000000000000000, 0.000000000000000000, -3.491498521563489089E-15 ) ) ;
#167 = DIRECTION ( 'NONE',  ( 1.000000000000000000, 0.000000000000000000, -3.491498521563489089E-15 ) ) ;
#168 = AXIS2_PLACEMENT_3D ( 'NONE', #178, #198, #77 ) ;
#169 = PLANE ( 'NONE',  #57 ) ;
#170 = CARTESIAN_POINT ( 'NONE',  ( 1.326762908760390423E-13, 0.000000000000000000, 38.00000000000000000 ) ) ;
#171 = DIRECTION ( 'NONE',  ( 1.000000000000000000, 0.000000000000000000, -2.478176394252584099E-15 ) ) ;
#172 = CARTESIAN_POINT ( 'NONE',  ( 0.1750000000000005718, 0.000000000000000000, 0.1552307312721734056 ) ) ;
#173 = ORIENTED_EDGE ( 'NONE', *, *, #222, .T. ) ;
#174 = ADVANCED_FACE ( 'NONE', ( #206, #21 ), #223, .T. ) ;
#175 = ORIENTED_EDGE ( 'NONE', *, *, #90, .F. ) ;
#176 = CALENDAR_DATE ( 2023, 27, 9 ) ;
#177 = CIRCLE ( 'NONE', #118, 1.500000000000000000 ) ;
#178 = CARTESIAN_POINT ( 'NONE',  ( 3.000882785495739869E-16, 0.000000000000000000, 0.08594869896941942367 ) ) ;
#179 = DIRECTION ( 'NONE',  ( 1.000000000000000000, 0.000000000000000000, -3.491481338843133750E-15 ) ) ;
#180 = PERSON_AND_ORGANIZATION ( #26, #257 ) ;
#181 = CC_DESIGN_APPROVAL ( #35, ( #163 ) ) ;
#182 = DIRECTION ( 'NONE',  ( 3.491481338843133355E-15, -0.000000000000000000, 1.000000000000000000 ) ) ;
#183 = VERTEX_POINT ( 'NONE', #145 ) ;
#184 = ADVANCED_FACE ( 'NONE', ( #227, #208 ), #16, .F. ) ;
#185 = VERTEX_POINT ( 'NONE', #125 ) ;
#186 = AXIS2_PLACEMENT_3D ( 'NONE', #267, #245, #167 ) ;
#187 = CARTESIAN_POINT ( 'NONE',  ( 1.326762908760390423E-13, 0.000000000000000000, 38.00000000000000000 ) ) ;
#188 = EDGE_CURVE ( 'NONE', #101, #101, #253, .T. ) ;
#189 = CIRCLE ( 'NONE', #186, 0.2949999999999999845 ) ;
#190 = EDGE_LOOP ( 'NONE', ( #108 ) ) ;
#191 = EDGE_LOOP ( 'NONE', ( #5 ) ) ;
#192 = LOCAL_TIME ( 7, 46, 14.00000000000000000, #165 ) ;
#193 = SECURITY_CLASSIFICATION_LEVEL ( 'unclassified' ) ;
#194 = EDGE_LOOP ( 'NONE', ( #68 ) ) ;
#195 = DIRECTION ( 'NONE',  ( 1.000000000000000000, 0.000000000000000000, 0.000000000000000000 ) ) ;
#196 = AXIS2_PLACEMENT_3D ( 'NONE', #149, #224, #171 ) ;
#197 = PERSON_AND_ORGANIZATION_ROLE ( 'classification_officer' ) ;
#198 = DIRECTION ( 'NONE',  ( -3.491481338843133355E-15, 0.000000000000000000, -1.000000000000000000 ) ) ;
#199 = APPROVAL_DATE_TIME ( #201, #114 ) ;
#200 = ORIENTED_EDGE ( 'NONE', *, *, #222, .F. ) ;
#201 = DATE_AND_TIME ( #116, #137 ) ;
#202 = AXIS2_PLACEMENT_3D ( 'NONE', #268, #182, #249 ) ;
#203 = DIRECTION ( 'NONE',  ( 3.491481338843133355E-15, -0.000000000000000000, 1.000000000000000000 ) ) ;
#204 = CC_DESIGN_DATE_AND_TIME_ASSIGNMENT ( #14, #98, ( #254 ) ) ;
#205 = CARTESIAN_POINT ( 'NONE',  ( 0.2950000000000001510, 0.000000000000000000, 0.06928203230275356561 ) ) ;
#206 = FACE_OUTER_BOUND ( 'NONE', #133, .T. ) ;
#207 = CC_DESIGN_APPROVAL ( #114, ( #254 ) ) ;
#208 = FACE_OUTER_BOUND ( 'NONE', #63, .T. ) ;
#209 = AXIS2_PLACEMENT_3D ( 'NONE', #170, #273, #81 ) ;
#210 = CC_DESIGN_PERSON_AND_ORGANIZATION_ASSIGNMENT ( #91, #110, ( #163 ) ) ;
#211 = EDGE_LOOP ( 'NONE', ( #255 ) ) ;
#212 = CARTESIAN_POINT ( 'NONE',  ( 0.2950000000000002620, 0.000000000000000000, 0.08594869896941839671 ) ) ;
#213 = ORIENTED_EDGE ( 'NONE', *, *, #238, .F. ) ;
#214 = SHAPE_DEFINITION_REPRESENTATION ( #225, #42 ) ;
#215 = EDGE_LOOP ( 'NONE', ( #46 ) ) ;
#216 = COORDINATED_UNIVERSAL_TIME_OFFSET ( 1, 0, .AHEAD. ) ;
#217 = DIRECTION ( 'NONE',  ( 1.000000000000000000, 0.000000000000000000, -4.625929269271491633E-15 ) ) ;
#218 =( GEOMETRIC_REPRESENTATION_CONTEXT ( 3 ) GLOBAL_UNCERTAINTY_ASSIGNED_CONTEXT ( ( #44 ) ) GLOBAL_UNIT_ASSIGNED_CONTEXT ( ( #27, #228, #128 ) ) REPRESENTATION_CONTEXT ( 'NONE', 'WORKASPACE' ) );
#219 = PERSON_AND_ORGANIZATION ( #26, #257 ) ;
#220 = CARTESIAN_POINT ( 'NONE',  ( 2.575533043694770811E-14, 0.000000000000000000, 7.376619817616288266 ) ) ;
#221 = FACE_OUTER_BOUND ( 'NONE', #1, .T. ) ;
#222 = EDGE_CURVE ( 'NONE', #248, #248, #233, .T. ) ;
#223 = CYLINDRICAL_SURFACE ( 'NONE', #209, 0.2949999999999999845 ) ;
#224 = DIRECTION ( 'NONE',  ( 3.491481338843133355E-15, -0.000000000000000000, 1.000000000000000000 ) ) ;
#225 = PRODUCT_DEFINITION_SHAPE ( 'NONE', 'NONE',  #254 ) ;
#226 = DIRECTION ( 'NONE',  ( 3.491481338843133355E-15, -0.000000000000000000, 1.000000000000000000 ) ) ;
#227 = FACE_OUTER_BOUND ( 'NONE', #215, .T. ) ;
#228 =( NAMED_UNIT ( * ) PLANE_ANGLE_UNIT ( ) SI_UNIT ( $, .RADIAN. ) );
#229 = AXIS2_PLACEMENT_3D ( 'NONE', #136, #161, #217 ) ;
#230 = EDGE_LOOP ( 'NONE', ( #87 ) ) ;
#231 = MANIFOLD_SOLID_BREP ( 'Corps-Déplacer/Copier1', #269 ) ;
#232 = CC_DESIGN_PERSON_AND_ORGANIZATION_ASSIGNMENT ( #259, #33, ( #254 ) ) ;
#233 = CIRCLE ( 'NONE', #196, 0.1749999999999998224 ) ;
#234 = APPROVAL_ROLE ( '' ) ;
#235 = FACE_OUTER_BOUND ( 'NONE', #4, .T. ) ;
#236 = CALENDAR_DATE ( 2023, 27, 9 ) ;
#237 = FACE_OUTER_BOUND ( 'NONE', #194, .T. ) ;
#238 = EDGE_CURVE ( 'NONE', #143, #143, #20, .T. ) ;
#239 = DIRECTION ( 'NONE',  ( -1.000000000000000000, 0.000000000000000000, 4.625929269271497155E-15 ) ) ;
#240 = CONICAL_SURFACE ( 'NONE', #129, 0.1749999999999999611, 1.047197551196600740 ) ;
#241 = DIRECTION ( 'NONE',  ( 1.000000000000000000, 0.000000000000000000, 0.000000000000000000 ) ) ;
#242 = FACE_BOUND ( 'NONE', #275, .T. ) ;
#243 = DATE_AND_TIME ( #176, #192 ) ;
#244 = DIRECTION ( 'NONE',  ( 3.491481338843133355E-15, -0.000000000000000000, 1.000000000000000000 ) ) ;
#245 = DIRECTION ( 'NONE',  ( 3.491481338843133355E-15, -0.000000000000000000, 1.000000000000000000 ) ) ;
#246 = AXIS2_PLACEMENT_3D ( 'NONE', #11, #139, #239 ) ;
#247 = PRODUCT ( '965997', '965997', '', ( #12 ) ) ;
#248 = VERTEX_POINT ( 'NONE', #58 ) ;
#249 = DIRECTION ( 'NONE',  ( 1.000000000000000000, 0.000000000000000000, -4.625929269271497155E-15 ) ) ;
#250 = EDGE_CURVE ( 'NONE', #121, #121, #115, .T. ) ;
#251 = DIRECTION ( 'NONE',  ( 1.000000000000000000, 0.000000000000000000, -3.491481338843133355E-15 ) ) ;
#252 = DIRECTION ( 'NONE',  ( 1.000000000000000000, 0.000000000000000000, -3.491481338843133355E-15 ) ) ;
#253 = CIRCLE ( 'NONE', #202, 1.499999999999996225 ) ;
#254 = PRODUCT_DEFINITION ( 'UNKNOWN', '', #163, #127 ) ;
#255 = ORIENTED_EDGE ( 'NONE', *, *, #271, .F. ) ;
#256 = APPLICATION_CONTEXT ( 'configuration controlled 3d designs of mechanical parts and assemblies' ) ;
#257 = ORGANIZATION ( 'UNSPECIFIED', 'UNSPECIFIED', '' ) ;
#258 = ORIENTED_EDGE ( 'NONE', *, *, #263, .F. ) ;
#259 = PERSON_AND_ORGANIZATION ( #26, #257 ) ;
#260 = FACE_OUTER_BOUND ( 'NONE', #111, .T. ) ;
#261 = AXIS2_PLACEMENT_3D ( 'NONE', #142, #272, #120 ) ;
#262 = DIRECTION ( 'NONE',  ( -3.491481338843133355E-15, 0.000000000000000000, -1.000000000000000000 ) ) ;
#263 = EDGE_CURVE ( 'NONE', #2, #2, #189, .T. ) ;
#264 = DIRECTION ( 'NONE',  ( 1.000000000000000000, 0.000000000000000000, -3.469446951953614189E-15 ) ) ;
#265 = PERSON_AND_ORGANIZATION ( #26, #257 ) ;
#266 = CARTESIAN_POINT ( 'NONE',  ( 1.326762908760390423E-13, 1.199999999999993072, 38.00000000000000000 ) ) ;
#267 = CARTESIAN_POINT ( 'NONE',  ( 3.000882785495739869E-16, 0.000000000000000000, 0.08594869896941942367 ) ) ;
#268 = CARTESIAN_POINT ( 'NONE',  ( 1.316288464743861212E-13, 0.000000000000000000, 37.69999999999999574 ) ) ;
#269 = CLOSED_SHELL ( 'NONE', ( #150, #105, #174, #43, #100, #79, #85, #184, #22, #119 ) ) ;
#270 = LOCAL_TIME ( 7, 46, 14.00000000000000000, #134 ) ;
#271 = EDGE_CURVE ( 'NONE', #131, #131, #8, .T. ) ;
#272 = DIRECTION ( 'NONE',  ( 3.491481338843133355E-15, -0.000000000000000000, 1.000000000000000000 ) ) ;
#273 = DIRECTION ( 'NONE',  ( 3.491481338843133355E-15, -0.000000000000000000, 1.000000000000000000 ) ) ;
#274 = CIRCLE ( 'NONE', #53, 0.1749999999999999611 ) ;
#275 = EDGE_LOOP ( 'NONE', ( #213 ) ) ;
ENDSEC;
END-ISO-10303-21;
