ISO-10303-21;
HEADER;
FILE_DESCRIPTION (( 'STEP AP203' ),
    '1' );
FILE_NAME ('965996.step',
    '2023-09-27T05:46:13',
    ( '' ),
    ( '' ),
    'SwSTEP 2.0',
    'SolidWorks 2022',
    '' );
FILE_SCHEMA (( 'CONFIG_CONTROL_DESIGN' ));
ENDSEC;

DATA;
#1 = FACE_OUTER_BOUND ( 'NONE', #269, .T. ) ;
#2 = AXIS2_PLACEMENT_3D ( 'NONE', #85, #255, #167 ) ;
#3 = DIRECTION ( 'NONE',  ( -1.000000000000000000, 0.000000000000000000, 3.479156225140051412E-15 ) ) ;
#4 = DIRECTION ( 'NONE',  ( 3.491481338843133355E-15, -0.000000000000000000, 1.000000000000000000 ) ) ;
#5 = DIRECTION ( 'NONE',  ( -3.491481338843133355E-15, 0.000000000000000000, -1.000000000000000000 ) ) ;
#6 = CC_DESIGN_DATE_AND_TIME_ASSIGNMENT ( #220, #134, ( #75 ) ) ;
#7 = VERTEX_POINT ( 'NONE', #226 ) ;
#8 = ORIENTED_EDGE ( 'NONE', *, *, #81, .F. ) ;
#9 = PERSON_AND_ORGANIZATION_ROLE ( 'creator' ) ;
#10 = CC_DESIGN_PERSON_AND_ORGANIZATION_ASSIGNMENT ( #57, #73, ( #59 ) ) ;
#11 = CONICAL_SURFACE ( 'NONE', #74, 0.3350000000000000200, 1.047197551196589860 ) ;
#12 = APPROVAL_PERSON_ORGANIZATION ( #34, #115, #263 ) ;
#13 = AXIS2_PLACEMENT_3D ( 'NONE', #213, #174, #214 ) ;
#14 = COORDINATED_UNIVERSAL_TIME_OFFSET ( 1, 0, .AHEAD. ) ;
#15 = ADVANCED_FACE ( 'NONE', ( #42, #185 ), #231, .T. ) ;
#16 = DIRECTION ( 'NONE',  ( 1.000000000000000000, 0.000000000000000000, -3.491481338843133355E-15 ) ) ;
#17 = CIRCLE ( 'NONE', #105, 0.3350000000000000200 ) ;
#18 = DIRECTION ( 'NONE',  ( 1.000000000000000000, 0.000000000000000000, -3.479156225140051412E-15 ) ) ;
#19 = DIRECTION ( 'NONE',  ( -3.491481338843133355E-15, 0.000000000000000000, -1.000000000000000000 ) ) ;
#20 = FACE_OUTER_BOUND ( 'NONE', #98, .T. ) ;
#21 = PRODUCT_DEFINITION_SHAPE ( 'NONE', 'NONE',  #59 ) ;
#22 = AXIS2_PLACEMENT_3D ( 'NONE', #122, #257, #215 ) ;
#23 = FACE_OUTER_BOUND ( 'NONE', #35, .T. ) ;
#24 = AXIS2_PLACEMENT_3D ( 'NONE', #80, #251, #99 ) ;
#25 = DIRECTION ( 'NONE',  ( 1.000000000000000000, 0.000000000000000000, -3.491481338843133355E-15 ) ) ;
#26 = APPROVAL_STATUS ( 'not_yet_approved' ) ;
#27 = VERTEX_POINT ( 'NONE', #149 ) ;
#28 = ORIENTED_EDGE ( 'NONE', *, *, #203, .T. ) ;
#29 = CALENDAR_DATE ( 2023, 27, 9 ) ;
#30 = LOCAL_TIME ( 7, 46, 13.00000000000000000, #193 ) ;
#31 = EDGE_CURVE ( 'NONE', #254, #254, #84, .T. ) ;
#32 =( LENGTH_UNIT ( ) NAMED_UNIT ( * ) SI_UNIT ( .MILLI., .METRE. ) );
#33 = ORIENTED_EDGE ( 'NONE', *, *, #61, .F. ) ;
#34 = PERSON_AND_ORGANIZATION ( #139, #206 ) ;
#35 = EDGE_LOOP ( 'NONE', ( #246 ) ) ;
#36 = EDGE_LOOP ( 'NONE', ( #221 ) ) ;
#37 = ADVANCED_FACE ( 'NONE', ( #270, #162 ), #155, .F. ) ;
#38 = DIRECTION ( 'NONE',  ( 1.000000000000000000, 0.000000000000000000, -3.469446951953614189E-15 ) ) ;
#39 = EDGE_LOOP ( 'NONE', ( #140 ) ) ;
#40 =( GEOMETRIC_REPRESENTATION_CONTEXT ( 3 ) GLOBAL_UNCERTAINTY_ASSIGNED_CONTEXT ( ( #101 ) ) GLOBAL_UNIT_ASSIGNED_CONTEXT ( ( #32, #200, #77 ) ) REPRESENTATION_CONTEXT ( 'NONE', 'WORKASPACE' ) );
#41 = FACE_OUTER_BOUND ( 'NONE', #273, .T. ) ;
#42 = FACE_OUTER_BOUND ( 'NONE', #242, .T. ) ;
#43 = FACE_BOUND ( 'NONE', #202, .T. ) ;
#44 = CC_DESIGN_PERSON_AND_ORGANIZATION_ASSIGNMENT ( #197, #9, ( #87 ) ) ;
#45 = MANIFOLD_SOLID_BREP ( 'Corps-Déplacer/Copier1', #225 ) ;
#46 = DIRECTION ( 'NONE',  ( 3.491481338843133355E-15, -0.000000000000000000, 1.000000000000000000 ) ) ;
#47 = CYLINDRICAL_SURFACE ( 'NONE', #170, 0.1900000000000001132 ) ;
#48 = ADVANCED_FACE ( 'NONE', ( #62, #41 ), #160, .T. ) ;
#49 = AXIS2_PLACEMENT_3D ( 'NONE', #209, #96, #138 ) ;
#50 = SHAPE_DEFINITION_REPRESENTATION ( #21, #198 ) ;
#51 = COORDINATED_UNIVERSAL_TIME_OFFSET ( 1, 0, .AHEAD. ) ;
#52 = ORIENTED_EDGE ( 'NONE', *, *, #31, .T. ) ;
#53 = CARTESIAN_POINT ( 'NONE',  ( 0.3350000000000004086, 0.000000000000000000, 0.1024657890324939258 ) ) ;
#54 = CC_DESIGN_SECURITY_CLASSIFICATION ( #75, ( #87 ) ) ;
#55 = ORIENTED_EDGE ( 'NONE', *, *, #119, .F. ) ;
#56 = PERSON_AND_ORGANIZATION ( #139, #206 ) ;
#57 = PERSON_AND_ORGANIZATION ( #139, #206 ) ;
#58 = ORIENTED_EDGE ( 'NONE', *, *, #66, .F. ) ;
#59 = PRODUCT_DEFINITION ( 'UNKNOWN', '', #87, #258 ) ;
#60 = ORIENTED_EDGE ( 'NONE', *, *, #154, .T. ) ;
#61 = EDGE_CURVE ( 'NONE', #238, #238, #196, .T. ) ;
#62 = FACE_OUTER_BOUND ( 'NONE', #208, .T. ) ;
#63 = AXIS2_PLACEMENT_3D ( 'NONE', #104, #4, #148 ) ;
#64 = DIRECTION ( 'NONE',  ( 1.000000000000000000, 0.000000000000000000, -3.479156225140051412E-15 ) ) ;
#65 = CARTESIAN_POINT ( 'NONE',  ( 0.000000000000000000, 0.000000000000000000, 0.000000000000000000 ) ) ;
#66 = EDGE_CURVE ( 'NONE', #113, #113, #178, .T. ) ;
#67 = CARTESIAN_POINT ( 'NONE',  ( 1.500000000000026201, 0.000000000000000000, 7.520639055502745585 ) ) ;
#68 = FACE_OUTER_BOUND ( 'NONE', #158, .T. ) ;
#69 = PRODUCT ( '965996', '965996', '', ( #94 ) ) ;
#70 = FACE_OUTER_BOUND ( 'NONE', #39, .T. ) ;
#71 = COORDINATED_UNIVERSAL_TIME_OFFSET ( 1, 0, .AHEAD. ) ;
#72 = APPROVAL_DATE_TIME ( #223, #207 ) ;
#73 = PERSON_AND_ORGANIZATION_ROLE ( 'creator' ) ;
#74 = AXIS2_PLACEMENT_3D ( 'NONE', #144, #5, #3 ) ;
#75 = SECURITY_CLASSIFICATION ( '', '', #265 ) ;
#76 = CALENDAR_DATE ( 2023, 27, 9 ) ;
#77 =( NAMED_UNIT ( * ) SI_UNIT ( $, .STERADIAN. ) SOLID_ANGLE_UNIT ( ) );
#78 = ORIENTED_EDGE ( 'NONE', *, *, #90, .T. ) ;
#79 = AXIS2_PLACEMENT_3D ( 'NONE', #143, #234, #18 ) ;
#80 = CARTESIAN_POINT ( 'NONE',  ( 9.632365213220462367E-15, 0.000000000000000000, 2.758819045102514522 ) ) ;
#81 = EDGE_CURVE ( 'NONE', #250, #250, #17, .T. ) ;
#82 = DIRECTION ( 'NONE',  ( 1.000000000000000000, 0.000000000000000000, -4.625929269271491633E-15 ) ) ;
#83 = DIRECTION ( 'NONE',  ( 1.000000000000000000, 0.000000000000000000, -3.491481338843133355E-15 ) ) ;
#84 = CIRCLE ( 'NONE', #142, 1.500000000000000000 ) ;
#85 = CARTESIAN_POINT ( 'NONE',  ( 1.316288464743861212E-13, 0.000000000000000000, 37.69999999999999574 ) ) ;
#86 = DIRECTION ( 'NONE',  ( 1.000000000000000000, 0.000000000000000000, -5.782411586589390376E-15 ) ) ;
#87 = PRODUCT_DEFINITION_FORMATION_WITH_SPECIFIED_SOURCE ( 'ANY', '', #69, .NOT_KNOWN. ) ;
#88 = CIRCLE ( 'NONE', #63, 0.1900000000000001688 ) ;
#89 = FACE_BOUND ( 'NONE', #199, .T. ) ;
#90 = EDGE_CURVE ( 'NONE', #222, #222, #237, .T. ) ;
#91 = PLANE ( 'NONE',  #13 ) ;
#92 = VERTEX_POINT ( 'NONE', #177 ) ;
#93 = CONICAL_SURFACE ( 'NONE', #184, 0.2240741737109300802, 0.2617993877991428575 ) ;
#94 = MECHANICAL_CONTEXT ( 'NONE', #245, 'mechanical' ) ;
#95 = DIRECTION ( 'NONE',  ( 3.491481338843133355E-15, -0.000000000000000000, 1.000000000000000000 ) ) ;
#96 = DIRECTION ( 'NONE',  ( 3.491481338843133355E-15, -0.000000000000000000, 1.000000000000000000 ) ) ;
#97 = AXIS2_PLACEMENT_3D ( 'NONE', #131, #264, #179 ) ;
#98 = EDGE_LOOP ( 'NONE', ( #156 ) ) ;
#99 = DIRECTION ( 'NONE',  ( 1.000000000000000000, 0.000000000000000000, -3.870868845007346599E-15 ) ) ;
#100 = APPROVAL ( #133, 'UNSPECIFIED' ) ;
#101 = UNCERTAINTY_MEASURE_WITH_UNIT (LENGTH_MEASURE( 1.000000000000000082E-05 ), #32, 'distance_accuracy_value', 'NONE');
#102 = DIRECTION ( 'NONE',  ( 3.491481338843133355E-15, -0.000000000000000000, 1.000000000000000000 ) ) ;
#103 = FACE_OUTER_BOUND ( 'NONE', #114, .T. ) ;
#104 = CARTESIAN_POINT ( 'NONE',  ( 6.500495054502865107E-16, 0.000000000000000000, 0.1861815780649922480 ) ) ;
#105 = AXIS2_PLACEMENT_3D ( 'NONE', #161, #252, #64 ) ;
#106 = CC_DESIGN_APPROVAL ( #207, ( #75 ) ) ;
#107 = AXIS2_PLACEMENT_3D ( 'NONE', #166, #205, #82 ) ;
#108 = DIRECTION ( 'NONE',  ( 3.491481338843133355E-15, -0.000000000000000000, 1.000000000000000000 ) ) ;
#109 = CARTESIAN_POINT ( 'NONE',  ( 0.2240741737109397114, 0.000000000000000000, 2.758819045102513634 ) ) ;
#110 = APPROVAL_ROLE ( '' ) ;
#111 = LOCAL_TIME ( 7, 46, 13.00000000000000000, #71 ) ;
#112 = APPROVAL_DATE_TIME ( #244, #115 ) ;
#113 = VERTEX_POINT ( 'NONE', #109 ) ;
#114 = EDGE_LOOP ( 'NONE', ( #60 ) ) ;
#115 = APPROVAL ( #117, 'UNSPECIFIED' ) ;
#116 = APPLICATION_CONTEXT ( 'configuration controlled 3d designs of mechanical parts and assemblies' ) ;
#117 = APPROVAL_STATUS ( 'not_yet_approved' ) ;
#118 = CARTESIAN_POINT ( 'NONE',  ( 2.625817091846270366E-14, 0.000000000000000000, 7.520639055502750914 ) ) ;
#119 = EDGE_CURVE ( 'NONE', #7, #7, #88, .T. ) ;
#120 = AXIS2_PLACEMENT_3D ( 'NONE', #186, #46, #236 ) ;
#121 = PLANE ( 'NONE',  #146 ) ;
#122 = CARTESIAN_POINT ( 'NONE',  ( 1.316288464743861212E-13, 0.000000000000000000, 37.69999999999999574 ) ) ;
#123 = CARTESIAN_POINT ( 'NONE',  ( 1.326762908760390423E-13, 0.000000000000000000, 38.00000000000000000 ) ) ;
#124 = AXIS2_PLACEMENT_3D ( 'NONE', #233, #95, #16 ) ;
#125 = LOCAL_TIME ( 7, 46, 13.00000000000000000, #249 ) ;
#126 = AXIS2_PLACEMENT_3D ( 'NONE', #65, #239, #25 ) ;
#127 = CARTESIAN_POINT ( 'NONE',  ( 1.326762908760390423E-13, 0.000000000000000000, 38.00000000000000000 ) ) ;
#128 = PERSON_AND_ORGANIZATION_ROLE ( 'classification_officer' ) ;
#129 = CARTESIAN_POINT ( 'NONE',  ( 1.500000000000127676, 0.000000000000000000, 37.69999999999998863 ) ) ;
#130 = PRODUCT_RELATED_PRODUCT_CATEGORY ( 'detail', '', ( #69 ) ) ;
#131 = CARTESIAN_POINT ( 'NONE',  ( 0.000000000000000000, 0.000000000000000000, 0.000000000000000000 ) ) ;
#132 = PERSON_AND_ORGANIZATION_ROLE ( 'design_supplier' ) ;
#133 = APPROVAL_STATUS ( 'not_yet_approved' ) ;
#134 = DATE_TIME_ROLE ( 'classification_date' ) ;
#135 = EDGE_LOOP ( 'NONE', ( #52 ) ) ;
#136 = CALENDAR_DATE ( 2023, 27, 9 ) ;
#137 = ORIENTED_EDGE ( 'NONE', *, *, #61, .T. ) ;
#138 = DIRECTION ( 'NONE',  ( 1.000000000000000000, 0.000000000000000000, 0.000000000000000000 ) ) ;
#139 = PERSON ( 'UNSPECIFIED', 'UNSPECIFIED', 'UNSPECIFIED', ('UNSPECIFIED'), ('UNSPECIFIED'), ('UNSPECIFIED') ) ;
#140 = ORIENTED_EDGE ( 'NONE', *, *, #119, .T. ) ;
#141 = ORIENTED_EDGE ( 'NONE', *, *, #154, .F. ) ;
#142 = AXIS2_PLACEMENT_3D ( 'NONE', #118, #204, #38 ) ;
#143 = CARTESIAN_POINT ( 'NONE',  ( 2.922921151734924793E-16, 0.000000000000000000, 0.08371578903249715653 ) ) ;
#144 = CARTESIAN_POINT ( 'NONE',  ( 3.577573902767939821E-16, 0.000000000000000000, 0.1024657890324950915 ) ) ;
#145 = APPROVAL_PERSON_ORGANIZATION ( #56, #100, #228 ) ;
#146 = AXIS2_PLACEMENT_3D ( 'NONE', #211, #19, #172 ) ;
#147 = FACE_BOUND ( 'NONE', #180, .T. ) ;
#148 = DIRECTION ( 'NONE',  ( 1.000000000000000000, 0.000000000000000000, -3.423796334164747772E-15 ) ) ;
#149 = CARTESIAN_POINT ( 'NONE',  ( 1.200000000000125855, 0.000000000000000000, 37.99999999999999289 ) ) ;
#150 = ADVANCED_FACE ( 'NONE', ( #188, #190 ), #11, .T. ) ;
#151 = CARTESIAN_POINT ( 'NONE',  ( 0.3350000000000002975, 0.000000000000000000, 0.08371578903249599080 ) ) ;
#152 = PERSON_AND_ORGANIZATION ( #139, #206 ) ;
#153 = EDGE_LOOP ( 'NONE', ( #195 ) ) ;
#154 = EDGE_CURVE ( 'NONE', #194, #194, #266, .T. ) ;
#155 = TOROIDAL_SURFACE ( 'NONE', #124, 1.189999999999999947, 0.9999999999999995559 ) ;
#156 = ORIENTED_EDGE ( 'NONE', *, *, #159, .F. ) ;
#157 = CALENDAR_DATE ( 2023, 27, 9 ) ;
#158 = EDGE_LOOP ( 'NONE', ( #33 ) ) ;
#159 = EDGE_CURVE ( 'NONE', #92, #92, #216, .T. ) ;
#160 = CYLINDRICAL_SURFACE ( 'NONE', #49, 0.3350000000000000200 ) ;
#161 = CARTESIAN_POINT ( 'NONE',  ( 3.577573902767939821E-16, 0.000000000000000000, 0.1024657890324950915 ) ) ;
#162 = FACE_OUTER_BOUND ( 'NONE', #227, .T. ) ;
#163 = ADVANCED_FACE ( 'NONE', ( #275, #89 ), #253, .T. ) ;
#164 = ORIENTED_EDGE ( 'NONE', *, *, #66, .T. ) ;
#165 = CIRCLE ( 'NONE', #271, 1.199999999999993072 ) ;
#166 = CARTESIAN_POINT ( 'NONE',  ( 1.326762908760390423E-13, 0.000000000000000000, 38.00000000000000000 ) ) ;
#167 = DIRECTION ( 'NONE',  ( -1.000000000000000000, 0.000000000000000000, 4.625929269271497155E-15 ) ) ;
#168 = DIRECTION ( 'NONE',  ( 1.000000000000000000, 0.000000000000000000, -3.870868845007346599E-15 ) ) ;
#169 = ADVANCED_FACE ( 'NONE', ( #1 ), #121, .F. ) ;
#170 = AXIS2_PLACEMENT_3D ( 'NONE', #127, #217, #192 ) ;
#171 = AXIS2_PLACEMENT_3D ( 'NONE', #183, #272, #83 ) ;
#172 = DIRECTION ( 'NONE',  ( -1.000000000000000000, 0.000000000000000000, 3.491481338843133355E-15 ) ) ;
#173 = PERSON_AND_ORGANIZATION ( #139, #206 ) ;
#174 = DIRECTION ( 'NONE',  ( 3.491481338843133355E-15, -0.000000000000000000, 1.000000000000000000 ) ) ;
#175 = CALENDAR_DATE ( 2023, 27, 9 ) ;
#176 = DATE_AND_TIME ( #157, #189 ) ;
#177 = CARTESIAN_POINT ( 'NONE',  ( 0.1900000000000088007, 0.000000000000000000, 2.500000000000001332 ) ) ;
#178 = CIRCLE ( 'NONE', #24, 0.2240741737109300802 ) ;
#179 = DIRECTION ( 'NONE',  ( 1.000000000000000000, 0.000000000000000000, 0.000000000000000000 ) ) ;
#180 = EDGE_LOOP ( 'NONE', ( #164 ) ) ;
#181 = ADVANCED_FACE ( 'NONE', ( #68 ), #91, .F. ) ;
#182 = CC_DESIGN_APPROVAL ( #100, ( #59 ) ) ;
#183 = CARTESIAN_POINT ( 'NONE',  ( 0.000000000000000000, 0.000000000000000000, 0.000000000000000000 ) ) ;
#184 = AXIS2_PLACEMENT_3D ( 'NONE', #259, #108, #168 ) ;
#185 = FACE_OUTER_BOUND ( 'NONE', #135, .T. ) ;
#186 = CARTESIAN_POINT ( 'NONE',  ( 8.728703347107841277E-15, 0.000000000000000000, 2.500000000000002220 ) ) ;
#187 = CC_DESIGN_PERSON_AND_ORGANIZATION_ASSIGNMENT ( #152, #128, ( #75 ) ) ;
#188 = FACE_BOUND ( 'NONE', #201, .T. ) ;
#189 = LOCAL_TIME ( 7, 46, 13.00000000000000000, #14 ) ;
#190 = FACE_OUTER_BOUND ( 'NONE', #153, .T. ) ;
#191 = CC_DESIGN_PERSON_AND_ORGANIZATION_ASSIGNMENT ( #173, #132, ( #87 ) ) ;
#192 = DIRECTION ( 'NONE',  ( 1.000000000000000000, 0.000000000000000000, 0.000000000000000000 ) ) ;
#193 = COORDINATED_UNIVERSAL_TIME_OFFSET ( 1, 0, .AHEAD. ) ;
#194 = VERTEX_POINT ( 'NONE', #129 ) ;
#195 = ORIENTED_EDGE ( 'NONE', *, *, #81, .T. ) ;
#196 = CIRCLE ( 'NONE', #171, 0.1900000000000001688 ) ;
#197 = PERSON_AND_ORGANIZATION ( #139, #206 ) ;
#198 = ADVANCED_BREP_SHAPE_REPRESENTATION ( '965996', ( #45, #97 ), #40 ) ;
#199 = EDGE_LOOP ( 'NONE', ( #137 ) ) ;
#200 =( NAMED_UNIT ( * ) PLANE_ANGLE_UNIT ( ) SI_UNIT ( $, .RADIAN. ) );
#201 = EDGE_LOOP ( 'NONE', ( #55 ) ) ;
#202 = EDGE_LOOP ( 'NONE', ( #224 ) ) ;
#203 = EDGE_CURVE ( 'NONE', #27, #27, #165, .T. ) ;
#204 = DIRECTION ( 'NONE',  ( 3.491481338843133355E-15, -0.000000000000000000, 1.000000000000000000 ) ) ;
#205 = DIRECTION ( 'NONE',  ( 3.491481338843133355E-15, -0.000000000000000000, 1.000000000000000000 ) ) ;
#206 = ORGANIZATION ( 'UNSPECIFIED', 'UNSPECIFIED', '' ) ;
#207 = APPROVAL ( #26, 'UNSPECIFIED' ) ;
#208 = EDGE_LOOP ( 'NONE', ( #8 ) ) ;
#209 = CARTESIAN_POINT ( 'NONE',  ( 1.326762908760390423E-13, 0.000000000000000000, 38.00000000000000000 ) ) ;
#210 = LOCAL_TIME ( 7, 46, 13.00000000000000000, #51 ) ;
#211 = CARTESIAN_POINT ( 'NONE',  ( 1.326762908760390423E-13, 1.199999999999993072, 38.00000000000000000 ) ) ;
#212 = ADVANCED_FACE ( 'NONE', ( #23, #147 ), #93, .T. ) ;
#213 = CARTESIAN_POINT ( 'NONE',  ( 0.000000000000000000, 0.000000000000000000, 0.000000000000000000 ) ) ;
#214 = DIRECTION ( 'NONE',  ( 1.000000000000000000, 0.000000000000000000, -3.491481338843133355E-15 ) ) ;
#215 = DIRECTION ( 'NONE',  ( 1.000000000000000000, 0.000000000000000000, -4.625929269271497155E-15 ) ) ;
#216 = CIRCLE ( 'NONE', #120, 0.1900000000000000577 ) ;
#217 = DIRECTION ( 'NONE',  ( 3.491481338843133355E-15, -0.000000000000000000, 1.000000000000000000 ) ) ;
#218 = PERSON_AND_ORGANIZATION ( #139, #206 ) ;
#219 = CARTESIAN_POINT ( 'NONE',  ( 0.1900000000000001688, 0.000000000000000000, -6.633814543801959094E-16 ) ) ;
#220 = DATE_AND_TIME ( #76, #125 ) ;
#221 = ORIENTED_EDGE ( 'NONE', *, *, #90, .F. ) ;
#222 = VERTEX_POINT ( 'NONE', #151 ) ;
#223 = DATE_AND_TIME ( #175, #30 ) ;
#224 = ORIENTED_EDGE ( 'NONE', *, *, #203, .F. ) ;
#225 = CLOSED_SHELL ( 'NONE', ( #181, #163, #48, #150, #256, #262, #169, #37, #212, #15 ) ) ;
#226 = CARTESIAN_POINT ( 'NONE',  ( 0.1900000000000008349, 0.000000000000000000, 0.1861815780649916097 ) ) ;
#227 = EDGE_LOOP ( 'NONE', ( #268 ) ) ;
#228 = APPROVAL_ROLE ( '' ) ;
#229 = EDGE_LOOP ( 'NONE', ( #58 ) ) ;
#230 = DATE_TIME_ROLE ( 'creation_date' ) ;
#231 = CYLINDRICAL_SURFACE ( 'NONE', #107, 1.499999999999998002 ) ;
#232 = APPROVAL_PERSON_ORGANIZATION ( #218, #207, #110 ) ;
#233 = CARTESIAN_POINT ( 'NONE',  ( 8.728703347107834966E-15, 0.000000000000000000, 2.500000000000000444 ) ) ;
#234 = DIRECTION ( 'NONE',  ( 3.491481338843133355E-15, -0.000000000000000000, 1.000000000000000000 ) ) ;
#235 = CC_DESIGN_PERSON_AND_ORGANIZATION_ASSIGNMENT ( #261, #248, ( #69 ) ) ;
#236 = DIRECTION ( 'NONE',  ( 1.000000000000000000, 0.000000000000000000, -4.565061778886333255E-15 ) ) ;
#237 = CIRCLE ( 'NONE', #79, 0.3350000000000000200 ) ;
#238 = VERTEX_POINT ( 'NONE', #219 ) ;
#239 = DIRECTION ( 'NONE',  ( 3.491481338843133355E-15, -0.000000000000000000, 1.000000000000000000 ) ) ;
#240 = APPLICATION_PROTOCOL_DEFINITION ( 'international standard', 'config_control_design', 1994, #116 ) ;
#241 = DATE_AND_TIME ( #136, #111 ) ;
#242 = EDGE_LOOP ( 'NONE', ( #141 ) ) ;
#243 = CC_DESIGN_DATE_AND_TIME_ASSIGNMENT ( #241, #230, ( #59 ) ) ;
#244 = DATE_AND_TIME ( #29, #210 ) ;
#245 = APPLICATION_CONTEXT ( 'configuration controlled 3d designs of mechanical parts and assemblies' ) ;
#246 = ORIENTED_EDGE ( 'NONE', *, *, #31, .F. ) ;
#247 = CC_DESIGN_APPROVAL ( #115, ( #87 ) ) ;
#248 = PERSON_AND_ORGANIZATION_ROLE ( 'design_owner' ) ;
#249 = COORDINATED_UNIVERSAL_TIME_OFFSET ( 1, 0, .AHEAD. ) ;
#250 = VERTEX_POINT ( 'NONE', #53 ) ;
#251 = DIRECTION ( 'NONE',  ( 3.491481338843133355E-15, -0.000000000000000000, 1.000000000000000000 ) ) ;
#252 = DIRECTION ( 'NONE',  ( 3.491481338843133355E-15, -0.000000000000000000, 1.000000000000000000 ) ) ;
#253 = CONICAL_SURFACE ( 'NONE', #126, 0.1900000000000001688, 1.047197551196589860 ) ;
#254 = VERTEX_POINT ( 'NONE', #67 ) ;
#255 = DIRECTION ( 'NONE',  ( -3.491481338843133355E-15, 0.000000000000000000, -1.000000000000000000 ) ) ;
#256 = ADVANCED_FACE ( 'NONE', ( #20, #70 ), #47, .T. ) ;
#257 = DIRECTION ( 'NONE',  ( 3.491481338843133355E-15, -0.000000000000000000, 1.000000000000000000 ) ) ;
#258 = DESIGN_CONTEXT ( 'detailed design', #116, 'design' ) ;
#259 = CARTESIAN_POINT ( 'NONE',  ( 9.632365213220462367E-15, 0.000000000000000000, 2.758819045102514522 ) ) ;
#260 = APPROVAL_DATE_TIME ( #176, #100 ) ;
#261 = PERSON_AND_ORGANIZATION ( #139, #206 ) ;
#262 = ADVANCED_FACE ( 'NONE', ( #43, #103 ), #274, .T. ) ;
#263 = APPROVAL_ROLE ( '' ) ;
#264 = DIRECTION ( 'NONE',  ( 0.000000000000000000, 0.000000000000000000, 1.000000000000000000 ) ) ;
#265 = SECURITY_CLASSIFICATION_LEVEL ( 'unclassified' ) ;
#266 = CIRCLE ( 'NONE', #22, 1.499999999999996225 ) ;
#267 = APPLICATION_PROTOCOL_DEFINITION ( 'international standard', 'config_control_design', 1994, #245 ) ;
#268 = ORIENTED_EDGE ( 'NONE', *, *, #159, .T. ) ;
#269 = EDGE_LOOP ( 'NONE', ( #28 ) ) ;
#270 = FACE_OUTER_BOUND ( 'NONE', #229, .T. ) ;
#271 = AXIS2_PLACEMENT_3D ( 'NONE', #123, #102, #86 ) ;
#272 = DIRECTION ( 'NONE',  ( 3.491481338843133355E-15, -0.000000000000000000, 1.000000000000000000 ) ) ;
#273 = EDGE_LOOP ( 'NONE', ( #78 ) ) ;
#274 = CONICAL_SURFACE ( 'NONE', #2, 1.499999999999996225, 0.7853981633974504994 ) ;
#275 = FACE_OUTER_BOUND ( 'NONE', #36, .T. ) ;
ENDSEC;
END-ISO-10303-21;
