ISO-10303-21;
HEADER;
FILE_DESCRIPTION (( 'STEP AP203' ),
    '1' );
FILE_NAME ('965995.step',
    '2023-09-27T05:46:13',
    ( '' ),
    ( '' ),
    'SwSTEP 2.0',
    'SolidWorks 2022',
    '' );
FILE_SCHEMA (( 'CONFIG_CONTROL_DESIGN' ));
ENDSEC;

DATA;
#1 = VERTEX_POINT ( 'NONE', #111 ) ;
#2 = APPROVAL_PERSON_ORGANIZATION ( #72, #268, #8 ) ;
#3 = COORDINATED_UNIVERSAL_TIME_OFFSET ( 1, 0, .AHEAD. ) ;
#4 = CC_DESIGN_PERSON_AND_ORGANIZATION_ASSIGNMENT ( #236, #201, ( #187 ) ) ;
#5 = COORDINATED_UNIVERSAL_TIME_OFFSET ( 1, 0, .AHEAD. ) ;
#6 = ADVANCED_FACE ( 'NONE', ( #145, #56 ), #147, .T. ) ;
#7 = EDGE_LOOP ( 'NONE', ( #179 ) ) ;
#8 = APPROVAL_ROLE ( '' ) ;
#9 = PRODUCT_DEFINITION_SHAPE ( 'NONE', 'NONE',  #271 ) ;
#10 = CALENDAR_DATE ( 2023, 27, 9 ) ;
#11 = DIRECTION ( 'NONE',  ( -3.491481338843133355E-15, 0.000000000000000000, -1.000000000000000000 ) ) ;
#12 = ORIENTED_EDGE ( 'NONE', *, *, #122, .F. ) ;
#13 = CARTESIAN_POINT ( 'NONE',  ( 3.023210511239495863E-14, 0.000000000000000000, 8.658819045102516654 ) ) ;
#14 = ADVANCED_FACE ( 'NONE', ( #100, #246 ), #222, .T. ) ;
#15 = ORIENTED_EDGE ( 'NONE', *, *, #189, .F. ) ;
#16 = CIRCLE ( 'NONE', #127, 0.8340741737109290677 ) ;
#17 = EDGE_LOOP ( 'NONE', ( #24 ) ) ;
#18 = CC_DESIGN_PERSON_AND_ORGANIZATION_ASSIGNMENT ( #135, #152, ( #271 ) ) ;
#19 =( NAMED_UNIT ( * ) SI_UNIT ( $, .STERADIAN. ) SOLID_ANGLE_UNIT ( ) );
#20 = CARTESIAN_POINT ( 'NONE',  ( 0.000000000000000000, 0.000000000000000000, 0.000000000000000000 ) ) ;
#21 = DIRECTION ( 'NONE',  ( 1.000000000000000000, 0.000000000000000000, -3.523657060577889805E-15 ) ) ;
#22 = FACE_OUTER_BOUND ( 'NONE', #218, .T. ) ;
#23 = SHAPE_DEFINITION_REPRESENTATION ( #9, #40 ) ;
#24 = ORIENTED_EDGE ( 'NONE', *, *, #169, .T. ) ;
#25 = APPROVAL_STATUS ( 'not_yet_approved' ) ;
#26 = ORIENTED_EDGE ( 'NONE', *, *, #183, .T. ) ;
#27 = ADVANCED_FACE ( 'NONE', ( #144, #223 ), #185, .T. ) ;
#28 = DATE_AND_TIME ( #241, #69 ) ;
#29 = PERSON_AND_ORGANIZATION ( #200, #221 ) ;
#30 = CARTESIAN_POINT ( 'NONE',  ( 1.326762908760390423E-13, 0.000000000000000000, 38.00000000000000000 ) ) ;
#31 = DIRECTION ( 'NONE',  ( -1.000000000000000000, 0.000000000000000000, 4.625929269271497155E-15 ) ) ;
#32 = DIRECTION ( 'NONE',  ( 3.491481338843133355E-15, -0.000000000000000000, 1.000000000000000000 ) ) ;
#33 = ADVANCED_FACE ( 'NONE', ( #35, #80 ), #121, .T. ) ;
#34 = CARTESIAN_POINT ( 'NONE',  ( 8.063230763406655524E-16, 0.000000000000000000, 0.2309401076758532678 ) ) ;
#35 = FACE_OUTER_BOUND ( 'NONE', #157, .T. ) ;
#36 = APPROVAL_PERSON_ORGANIZATION ( #93, #75, #239 ) ;
#37 = AXIS2_PLACEMENT_3D ( 'NONE', #20, #98, #153 ) ;
#38 = CARTESIAN_POINT ( 'NONE',  ( 0.8340741737109593767, 0.000000000000000000, 8.658819045102513101 ) ) ;
#39 = FACE_BOUND ( 'NONE', #97, .T. ) ;
#40 = ADVANCED_BREP_SHAPE_REPRESENTATION ( '965995', ( #45, #37 ), #195 ) ;
#41 = LOCAL_TIME ( 7, 46, 13.00000000000000000, #76 ) ;
#42 = VERTEX_POINT ( 'NONE', #113 ) ;
#43 = CC_DESIGN_PERSON_AND_ORGANIZATION_ASSIGNMENT ( #263, #52, ( #143 ) ) ;
#44 = DIRECTION ( 'NONE',  ( 3.491481338843133355E-15, -0.000000000000000000, 1.000000000000000000 ) ) ;
#45 = MANIFOLD_SOLID_BREP ( 'Corps-Déplacer/Copier1', #64 ) ;
#46 = SECURITY_CLASSIFICATION_LEVEL ( 'unclassified' ) ;
#47 = AXIS2_PLACEMENT_3D ( 'NONE', #225, #11, #161 ) ;
#48 = AXIS2_PLACEMENT_3D ( 'NONE', #193, #252, #232 ) ;
#49 = ORIENTED_EDGE ( 'NONE', *, *, #247, .F. ) ;
#50 = APPROVAL_DATE_TIME ( #175, #268 ) ;
#51 = ORIENTED_EDGE ( 'NONE', *, *, #146, .T. ) ;
#52 = PERSON_AND_ORGANIZATION_ROLE ( 'design_owner' ) ;
#53 = EDGE_LOOP ( 'NONE', ( #138 ) ) ;
#54 = CONICAL_SURFACE ( 'NONE', #242, 0.8340741737109290677, 0.2617993877991430796 ) ;
#55 = UNCERTAINTY_MEASURE_WITH_UNIT (LENGTH_MEASURE( 1.000000000000000082E-05 ), #114, 'distance_accuracy_value', 'NONE');
#56 = FACE_OUTER_BOUND ( 'NONE', #94, .T. ) ;
#57 = CARTESIAN_POINT ( 'NONE',  ( 1.326762908760390423E-13, 0.000000000000000000, 38.00000000000000000 ) ) ;
#58 = AXIS2_PLACEMENT_3D ( 'NONE', #126, #32, #209 ) ;
#59 = ADVANCED_FACE ( 'NONE', ( #163, #85 ), #207, .T. ) ;
#60 = DIRECTION ( 'NONE',  ( 1.000000000000000000, 0.000000000000000000, -4.159638388654921333E-15 ) ) ;
#61 = DESIGN_CONTEXT ( 'detailed design', #112, 'design' ) ;
#62 = DIRECTION ( 'NONE',  ( -3.491481338843133355E-15, 0.000000000000000000, -1.000000000000000000 ) ) ;
#63 = DIRECTION ( 'NONE',  ( 1.000000000000000000, 0.000000000000000000, -3.491481338843133355E-15 ) ) ;
#64 = CLOSED_SHELL ( 'NONE', ( #165, #226, #14, #59, #33, #27, #83, #262, #108, #6 ) ) ;
#65 = CARTESIAN_POINT ( 'NONE',  ( 0.7999999999999997113, 0.000000000000000000, -2.793185071074505895E-15 ) ) ;
#66 = VERTEX_POINT ( 'NONE', #233 ) ;
#67 = CARTESIAN_POINT ( 'NONE',  ( 0.8000000000000284661, 0.000000000000000000, 8.399999999999998579 ) ) ;
#68 = CIRCLE ( 'NONE', #186, 1.199999999999999956 ) ;
#69 = LOCAL_TIME ( 7, 46, 13.00000000000000000, #117 ) ;
#70 = DATE_AND_TIME ( #10, #41 ) ;
#71 = ORIENTED_EDGE ( 'NONE', *, *, #122, .T. ) ;
#72 = PERSON_AND_ORGANIZATION ( #200, #221 ) ;
#73 = CIRCLE ( 'NONE', #115, 0.7999999999999999334 ) ;
#74 = PERSON_AND_ORGANIZATION ( #200, #221 ) ;
#75 = APPROVAL ( #25, 'UNSPECIFIED' ) ;
#76 = COORDINATED_UNIVERSAL_TIME_OFFSET ( 1, 0, .AHEAD. ) ;
#77 = ORIENTED_EDGE ( 'NONE', *, *, #189, .T. ) ;
#78 = CC_DESIGN_APPROVAL ( #75, ( #140 ) ) ;
#79 = APPROVAL ( #159, 'UNSPECIFIED' ) ;
#80 = FACE_OUTER_BOUND ( 'NONE', #266, .T. ) ;
#81 = ORIENTED_EDGE ( 'NONE', *, *, #146, .F. ) ;
#82 = DIRECTION ( 'NONE',  ( 1.000000000000000000, 0.000000000000000000, 0.000000000000000000 ) ) ;
#83 = ADVANCED_FACE ( 'NONE', ( #204 ), #203, .F. ) ;
#84 = DIRECTION ( 'NONE',  ( -3.491481338843133355E-15, 0.000000000000000000, -1.000000000000000000 ) ) ;
#85 = FACE_OUTER_BOUND ( 'NONE', #53, .T. ) ;
#86 = CIRCLE ( 'NONE', #237, 1.199999999999999956 ) ;
#87 = CC_DESIGN_PERSON_AND_ORGANIZATION_ASSIGNMENT ( #137, #158, ( #140 ) ) ;
#88 = DIRECTION ( 'NONE',  ( 1.000000000000000000, 0.000000000000000000, -3.491481338843133355E-15 ) ) ;
#89 = DIRECTION ( 'NONE',  ( 3.491481338843133355E-15, -0.000000000000000000, 1.000000000000000000 ) ) ;
#90 = FACE_OUTER_BOUND ( 'NONE', #104, .T. ) ;
#91 = AXIS2_PLACEMENT_3D ( 'NONE', #120, #62, #243 ) ;
#92 =( NAMED_UNIT ( * ) PLANE_ANGLE_UNIT ( ) SI_UNIT ( $, .RADIAN. ) );
#93 = PERSON_AND_ORGANIZATION ( #200, #221 ) ;
#94 = EDGE_LOOP ( 'NONE', ( #197 ) ) ;
#95 = EDGE_CURVE ( 'NONE', #1, #1, #224, .T. ) ;
#96 = APPLICATION_PROTOCOL_DEFINITION ( 'international standard', 'config_control_design', 1994, #112 ) ;
#97 = EDGE_LOOP ( 'NONE', ( #77 ) ) ;
#98 = DIRECTION ( 'NONE',  ( 0.000000000000000000, 0.000000000000000000, 1.000000000000000000 ) ) ;
#99 = CC_DESIGN_APPROVAL ( #268, ( #187 ) ) ;
#100 = FACE_OUTER_BOUND ( 'NONE', #136, .T. ) ;
#101 = AXIS2_PLACEMENT_3D ( 'NONE', #206, #103, #270 ) ;
#102 = DIRECTION ( 'NONE',  ( 1.000000000000000000, 0.000000000000000000, -5.782411586589357244E-15 ) ) ;
#103 = DIRECTION ( 'NONE',  ( 3.491481338843133355E-15, -0.000000000000000000, 1.000000000000000000 ) ) ;
#104 = EDGE_LOOP ( 'NONE', ( #272 ) ) ;
#105 = AXIS2_PLACEMENT_3D ( 'NONE', #131, #190, #149 ) ;
#106 = TOROIDAL_SURFACE ( 'NONE', #264, 1.799999999999999156, 1.000000000000000000 ) ;
#107 = CARTESIAN_POINT ( 'NONE',  ( 1.316288464743861212E-13, 0.000000000000000000, 37.69999999999999574 ) ) ;
#108 = ADVANCED_FACE ( 'NONE', ( #123, #167 ), #54, .T. ) ;
#109 = AXIS2_PLACEMENT_3D ( 'NONE', #181, #244, #267 ) ;
#110 = CIRCLE ( 'NONE', #105, 0.7999999999999990452 ) ;
#111 = CARTESIAN_POINT ( 'NONE',  ( 1.500000000000038858, 0.000000000000000000, 11.14408806288567355 ) ) ;
#112 = APPLICATION_CONTEXT ( 'configuration controlled 3d designs of mechanical parts and assemblies' ) ;
#113 = CARTESIAN_POINT ( 'NONE',  ( 1.500000000000127676, 0.000000000000000000, 37.69999999999998863 ) ) ;
#114 =( LENGTH_UNIT ( ) NAMED_UNIT ( * ) SI_UNIT ( .MILLI., .METRE. ) );
#115 = AXIS2_PLACEMENT_3D ( 'NONE', #275, #273, #21 ) ;
#116 = ORIENTED_EDGE ( 'NONE', *, *, #169, .F. ) ;
#117 = COORDINATED_UNIVERSAL_TIME_OFFSET ( 1, 0, .AHEAD. ) ;
#118 = EDGE_LOOP ( 'NONE', ( #15 ) ) ;
#119 = DATE_AND_TIME ( #215, #198 ) ;
#120 = CARTESIAN_POINT ( 'NONE',  ( 8.645144319880447645E-16, 0.000000000000000000, 0.2476067743425180989 ) ) ;
#121 = CYLINDRICAL_SURFACE ( 'NONE', #133, 0.7999999999999994893 ) ;
#122 = EDGE_CURVE ( 'NONE', #66, #66, #194, .T. ) ;
#123 = FACE_OUTER_BOUND ( 'NONE', #7, .T. ) ;
#124 = CC_DESIGN_PERSON_AND_ORGANIZATION_ASSIGNMENT ( #74, #256, ( #187 ) ) ;
#125 = DIRECTION ( 'NONE',  ( 3.491481338843133355E-15, -0.000000000000000000, 1.000000000000000000 ) ) ;
#126 = CARTESIAN_POINT ( 'NONE',  ( 3.890937550998986670E-14, 0.000000000000000000, 11.14408806288567888 ) ) ;
#127 = AXIS2_PLACEMENT_3D ( 'NONE', #231, #173, #129 ) ;
#128 = CARTESIAN_POINT ( 'NONE',  ( 1.200000000000000844, 0.000000000000000000, 0.2476067743425139356 ) ) ;
#129 = DIRECTION ( 'NONE',  ( 1.000000000000000000, 0.000000000000000000, -4.159638388654921333E-15 ) ) ;
#130 = VERTEX_POINT ( 'NONE', #65 ) ;
#131 = CARTESIAN_POINT ( 'NONE',  ( 2.932844324628232650E-14, 0.000000000000000000, 8.400000000000000355 ) ) ;
#132 = COORDINATED_UNIVERSAL_TIME_OFFSET ( 1, 0, .AHEAD. ) ;
#133 = AXIS2_PLACEMENT_3D ( 'NONE', #30, #182, #82 ) ;
#134 = LOCAL_TIME ( 7, 46, 13.00000000000000000, #132 ) ;
#135 = PERSON_AND_ORGANIZATION ( #200, #221 ) ;
#136 = EDGE_LOOP ( 'NONE', ( #141 ) ) ;
#137 = PERSON_AND_ORGANIZATION ( #200, #221 ) ;
#138 = ORIENTED_EDGE ( 'NONE', *, *, #240, .T. ) ;
#139 = AXIS2_PLACEMENT_3D ( 'NONE', #150, #44, #274 ) ;
#140 = SECURITY_CLASSIFICATION ( '', '', #46 ) ;
#141 = ORIENTED_EDGE ( 'NONE', *, *, #240, .F. ) ;
#142 = EDGE_LOOP ( 'NONE', ( #71 ) ) ;
#143 = PRODUCT ( '965995', '965995', '', ( #156 ) ) ;
#144 = FACE_BOUND ( 'NONE', #166, .T. ) ;
#145 = FACE_OUTER_BOUND ( 'NONE', #261, .T. ) ;
#146 = EDGE_CURVE ( 'NONE', #42, #42, #208, .T. ) ;
#147 = CYLINDRICAL_SURFACE ( 'NONE', #109, 1.499999999999998002 ) ;
#148 = CARTESIAN_POINT ( 'NONE',  ( 2.932844324628232650E-14, 0.000000000000000000, 8.400000000000000355 ) ) ;
#149 = DIRECTION ( 'NONE',  ( 1.000000000000000000, 0.000000000000000000, -4.336808689942023258E-15 ) ) ;
#150 = CARTESIAN_POINT ( 'NONE',  ( 0.000000000000000000, 0.000000000000000000, 0.000000000000000000 ) ) ;
#151 = DIRECTION ( 'NONE',  ( 1.000000000000000000, 0.000000000000000000, -3.478481970057660322E-15 ) ) ;
#152 = PERSON_AND_ORGANIZATION_ROLE ( 'creator' ) ;
#153 = DIRECTION ( 'NONE',  ( 1.000000000000000000, 0.000000000000000000, 0.000000000000000000 ) ) ;
#154 = ORIENTED_EDGE ( 'NONE', *, *, #247, .T. ) ;
#155 = AXIS2_PLACEMENT_3D ( 'NONE', #205, #84, #31 ) ;
#156 = MECHANICAL_CONTEXT ( 'NONE', #162, 'mechanical' ) ;
#157 = EDGE_LOOP ( 'NONE', ( #160 ) ) ;
#158 = PERSON_AND_ORGANIZATION_ROLE ( 'classification_officer' ) ;
#159 = APPROVAL_STATUS ( 'not_yet_approved' ) ;
#160 = ORIENTED_EDGE ( 'NONE', *, *, #183, .F. ) ;
#161 = DIRECTION ( 'NONE',  ( -1.000000000000000000, 0.000000000000000000, 3.491481338843133355E-15 ) ) ;
#162 = APPLICATION_CONTEXT ( 'configuration controlled 3d designs of mechanical parts and assemblies' ) ;
#163 = FACE_BOUND ( 'NONE', #177, .T. ) ;
#164 = PLANE ( 'NONE',  #250 ) ;
#165 = ADVANCED_FACE ( 'NONE', ( #188 ), #164, .F. ) ;
#166 = EDGE_LOOP ( 'NONE', ( #12 ) ) ;
#167 = FACE_BOUND ( 'NONE', #216, .T. ) ;
#168 = CC_DESIGN_SECURITY_CLASSIFICATION ( #140, ( #187 ) ) ;
#169 = EDGE_CURVE ( 'NONE', #191, #191, #68, .T. ) ;
#170 = FACE_OUTER_BOUND ( 'NONE', #259, .T. ) ;
#171 = DIRECTION ( 'NONE',  ( 3.491481338843133355E-15, -0.000000000000000000, 1.000000000000000000 ) ) ;
#172 = CARTESIAN_POINT ( 'NONE',  ( 0.8000000000000015987, 0.000000000000000000, 0.4785468820183615968 ) ) ;
#173 = DIRECTION ( 'NONE',  ( 3.491481338843133355E-15, -0.000000000000000000, 1.000000000000000000 ) ) ;
#174 = EDGE_LOOP ( 'NONE', ( #51 ) ) ;
#175 = DATE_AND_TIME ( #219, #230 ) ;
#176 = AXIS2_PLACEMENT_3D ( 'NONE', #57, #229, #102 ) ;
#177 = EDGE_LOOP ( 'NONE', ( #49 ) ) ;
#178 = APPROVAL_ROLE ( '' ) ;
#179 = ORIENTED_EDGE ( 'NONE', *, *, #95, .F. ) ;
#180 = APPROVAL_DATE_TIME ( #70, #79 ) ;
#181 = CARTESIAN_POINT ( 'NONE',  ( 1.326762908760390423E-13, 0.000000000000000000, 38.00000000000000000 ) ) ;
#182 = DIRECTION ( 'NONE',  ( 3.491481338843133355E-15, -0.000000000000000000, 1.000000000000000000 ) ) ;
#183 = EDGE_CURVE ( 'NONE', #255, #255, #110, .T. ) ;
#184 = DIRECTION ( 'NONE',  ( 3.491481338843133355E-15, -0.000000000000000000, 1.000000000000000000 ) ) ;
#185 = CONICAL_SURFACE ( 'NONE', #155, 1.499999999999996225, 0.7853981633974504994 ) ;
#186 = AXIS2_PLACEMENT_3D ( 'NONE', #34, #125, #210 ) ;
#187 = PRODUCT_DEFINITION_FORMATION_WITH_SPECIFIED_SOURCE ( 'ANY', '', #143, .NOT_KNOWN. ) ;
#188 = FACE_OUTER_BOUND ( 'NONE', #118, .T. ) ;
#189 = EDGE_CURVE ( 'NONE', #130, #130, #253, .T. ) ;
#190 = DIRECTION ( 'NONE',  ( 3.491481338843133355E-15, -0.000000000000000000, 1.000000000000000000 ) ) ;
#191 = VERTEX_POINT ( 'NONE', #235 ) ;
#192 = VERTEX_POINT ( 'NONE', #172 ) ;
#193 = CARTESIAN_POINT ( 'NONE',  ( 0.000000000000000000, 0.000000000000000000, 0.000000000000000000 ) ) ;
#194 = CIRCLE ( 'NONE', #101, 1.199999999999993072 ) ;
#195 =( GEOMETRIC_REPRESENTATION_CONTEXT ( 3 ) GLOBAL_UNCERTAINTY_ASSIGNED_CONTEXT ( ( #55 ) ) GLOBAL_UNIT_ASSIGNED_CONTEXT ( ( #114, #92, #19 ) ) REPRESENTATION_CONTEXT ( 'NONE', 'WORKASPACE' ) );
#196 = APPROVAL_DATE_TIME ( #28, #75 ) ;
#197 = ORIENTED_EDGE ( 'NONE', *, *, #95, .T. ) ;
#198 = LOCAL_TIME ( 7, 46, 13.00000000000000000, #5 ) ;
#199 = PRODUCT_RELATED_PRODUCT_CATEGORY ( 'detail', '', ( #143 ) ) ;
#200 = PERSON ( 'UNSPECIFIED', 'UNSPECIFIED', 'UNSPECIFIED', ('UNSPECIFIED'), ('UNSPECIFIED'), ('UNSPECIFIED') ) ;
#201 = PERSON_AND_ORGANIZATION_ROLE ( 'design_supplier' ) ;
#202 = EDGE_CURVE ( 'NONE', #212, #212, #16, .T. ) ;
#203 = PLANE ( 'NONE',  #47 ) ;
#204 = FACE_OUTER_BOUND ( 'NONE', #142, .T. ) ;
#205 = CARTESIAN_POINT ( 'NONE',  ( 1.316288464743861212E-13, 0.000000000000000000, 37.69999999999999574 ) ) ;
#206 = CARTESIAN_POINT ( 'NONE',  ( 1.326762908760390423E-13, 0.000000000000000000, 38.00000000000000000 ) ) ;
#207 = CONICAL_SURFACE ( 'NONE', #91, 1.199999999999999956, 1.047197551196605181 ) ;
#208 = CIRCLE ( 'NONE', #220, 1.499999999999996225 ) ;
#209 = DIRECTION ( 'NONE',  ( 1.000000000000000000, 0.000000000000000000, -3.469446951953614189E-15 ) ) ;
#210 = DIRECTION ( 'NONE',  ( 1.000000000000000000, 0.000000000000000000, -3.501069515317774866E-15 ) ) ;
#211 = CARTESIAN_POINT ( 'NONE',  ( 8.645144319880447645E-16, 0.000000000000000000, 0.2476067743425180989 ) ) ;
#212 = VERTEX_POINT ( 'NONE', #38 ) ;
#213 = VERTEX_POINT ( 'NONE', #128 ) ;
#214 = CALENDAR_DATE ( 2023, 27, 9 ) ;
#215 = CALENDAR_DATE ( 2023, 27, 9 ) ;
#216 = EDGE_LOOP ( 'NONE', ( #257 ) ) ;
#217 = DATE_TIME_ROLE ( 'classification_date' ) ;
#218 = EDGE_LOOP ( 'NONE', ( #26 ) ) ;
#219 = CALENDAR_DATE ( 2023, 27, 9 ) ;
#220 = AXIS2_PLACEMENT_3D ( 'NONE', #107, #184, #248 ) ;
#221 = ORGANIZATION ( 'UNSPECIFIED', 'UNSPECIFIED', '' ) ;
#222 = CYLINDRICAL_SURFACE ( 'NONE', #176, 1.199999999999999956 ) ;
#223 = FACE_OUTER_BOUND ( 'NONE', #174, .T. ) ;
#224 = CIRCLE ( 'NONE', #58, 1.500000000000000000 ) ;
#225 = CARTESIAN_POINT ( 'NONE',  ( 1.326762908760390423E-13, 1.199999999999993072, 38.00000000000000000 ) ) ;
#226 = ADVANCED_FACE ( 'NONE', ( #170, #39 ), #265, .T. ) ;
#227 = DIRECTION ( 'NONE',  ( 3.491481338843133355E-15, -0.000000000000000000, 1.000000000000000000 ) ) ;
#228 = CC_DESIGN_DATE_AND_TIME_ASSIGNMENT ( #119, #260, ( #271 ) ) ;
#229 = DIRECTION ( 'NONE',  ( 3.491481338843133355E-15, -0.000000000000000000, 1.000000000000000000 ) ) ;
#230 = LOCAL_TIME ( 7, 46, 13.00000000000000000, #3 ) ;
#231 = CARTESIAN_POINT ( 'NONE',  ( 3.023210511239495863E-14, 0.000000000000000000, 8.658819045102516654 ) ) ;
#232 = DIRECTION ( 'NONE',  ( 1.000000000000000000, 0.000000000000000000, -3.491481338843133750E-15 ) ) ;
#233 = CARTESIAN_POINT ( 'NONE',  ( 1.200000000000125855, 0.000000000000000000, 37.99999999999999289 ) ) ;
#234 = CC_DESIGN_DATE_AND_TIME_ASSIGNMENT ( #258, #217, ( #140 ) ) ;
#235 = CARTESIAN_POINT ( 'NONE',  ( 1.200000000000000844, 0.000000000000000000, 0.2309401076758490767 ) ) ;
#236 = PERSON_AND_ORGANIZATION ( #200, #221 ) ;
#237 = AXIS2_PLACEMENT_3D ( 'NONE', #211, #89, #151 ) ;
#238 = APPROVAL_STATUS ( 'not_yet_approved' ) ;
#239 = APPROVAL_ROLE ( '' ) ;
#240 = EDGE_CURVE ( 'NONE', #213, #213, #86, .T. ) ;
#241 = CALENDAR_DATE ( 2023, 27, 9 ) ;
#242 = AXIS2_PLACEMENT_3D ( 'NONE', #13, #245, #60 ) ;
#243 = DIRECTION ( 'NONE',  ( -1.000000000000000000, 0.000000000000000000, 3.478481970057660322E-15 ) ) ;
#244 = DIRECTION ( 'NONE',  ( 3.491481338843133355E-15, -0.000000000000000000, 1.000000000000000000 ) ) ;
#245 = DIRECTION ( 'NONE',  ( 3.491481338843133355E-15, -0.000000000000000000, 1.000000000000000000 ) ) ;
#246 = FACE_OUTER_BOUND ( 'NONE', #17, .T. ) ;
#247 = EDGE_CURVE ( 'NONE', #192, #192, #73, .T. ) ;
#248 = DIRECTION ( 'NONE',  ( 1.000000000000000000, 0.000000000000000000, -4.625929269271497155E-15 ) ) ;
#249 = CC_DESIGN_APPROVAL ( #79, ( #271 ) ) ;
#250 = AXIS2_PLACEMENT_3D ( 'NONE', #269, #227, #63 ) ;
#251 = APPLICATION_PROTOCOL_DEFINITION ( 'international standard', 'config_control_design', 1994, #162 ) ;
#252 = DIRECTION ( 'NONE',  ( 3.491481338843133355E-15, -0.000000000000000000, 1.000000000000000000 ) ) ;
#253 = CIRCLE ( 'NONE', #139, 0.7999999999999997113 ) ;
#254 = APPROVAL_PERSON_ORGANIZATION ( #29, #79, #178 ) ;
#255 = VERTEX_POINT ( 'NONE', #67 ) ;
#256 = PERSON_AND_ORGANIZATION_ROLE ( 'creator' ) ;
#257 = ORIENTED_EDGE ( 'NONE', *, *, #202, .T. ) ;
#258 = DATE_AND_TIME ( #214, #134 ) ;
#259 = EDGE_LOOP ( 'NONE', ( #116 ) ) ;
#260 = DATE_TIME_ROLE ( 'creation_date' ) ;
#261 = EDGE_LOOP ( 'NONE', ( #81 ) ) ;
#262 = ADVANCED_FACE ( 'NONE', ( #90, #22 ), #106, .F. ) ;
#263 = PERSON_AND_ORGANIZATION ( #200, #221 ) ;
#264 = AXIS2_PLACEMENT_3D ( 'NONE', #148, #171, #88 ) ;
#265 = CONICAL_SURFACE ( 'NONE', #48, 0.7999999999999997113, 1.047197551196592302 ) ;
#266 = EDGE_LOOP ( 'NONE', ( #154 ) ) ;
#267 = DIRECTION ( 'NONE',  ( 1.000000000000000000, 0.000000000000000000, -4.625929269271491633E-15 ) ) ;
#268 = APPROVAL ( #238, 'UNSPECIFIED' ) ;
#269 = CARTESIAN_POINT ( 'NONE',  ( 0.000000000000000000, 0.000000000000000000, 0.000000000000000000 ) ) ;
#270 = DIRECTION ( 'NONE',  ( 1.000000000000000000, 0.000000000000000000, -5.782411586589390376E-15 ) ) ;
#271 = PRODUCT_DEFINITION ( 'UNKNOWN', '', #187, #61 ) ;
#272 = ORIENTED_EDGE ( 'NONE', *, *, #202, .F. ) ;
#273 = DIRECTION ( 'NONE',  ( 3.491481338843133355E-15, -0.000000000000000000, 1.000000000000000000 ) ) ;
#274 = DIRECTION ( 'NONE',  ( 1.000000000000000000, 0.000000000000000000, -3.491481338843133750E-15 ) ) ;
#275 = CARTESIAN_POINT ( 'NONE',  ( 1.670837508328685961E-15, 0.000000000000000000, 0.4785468820183644278 ) ) ;
ENDSEC;
END-ISO-10303-21;
