ISO-10303-21;
HEADER;
FILE_DESCRIPTION (( 'STEP AP203' ),
    '1' );
FILE_NAME ('965994.step',
    '2023-09-27T05:46:12',
    ( '' ),
    ( '' ),
    'SwSTEP 2.0',
    'SolidWorks 2022',
    '' );
FILE_SCHEMA (( 'CONFIG_CONTROL_DESIGN' ));
ENDSEC;

DATA;
#1 =( NAMED_UNIT ( * ) PLANE_ANGLE_UNIT ( ) SI_UNIT ( $, .RADIAN. ) );
#2 = CARTESIAN_POINT ( 'NONE',  ( 0.5850000000000016298, 0.000000000000000000, 0.4785468820183623739 ) ) ;
#3 = CARTESIAN_POINT ( 'NONE',  ( 8.645144319880447645E-16, 0.000000000000000000, 0.2476067743425180989 ) ) ;
#4 = ORIENTED_EDGE ( 'NONE', *, *, #164, .F. ) ;
#5 = ORIENTED_EDGE ( 'NONE', *, *, #36, .F. ) ;
#6 = PERSON ( 'UNSPECIFIED', 'UNSPECIFIED', 'UNSPECIFIED', ('UNSPECIFIED'), ('UNSPECIFIED'), ('UNSPECIFIED') ) ;
#7 = PRODUCT_DEFINITION ( 'UNKNOWN', '', #248, #213 ) ;
#8 = APPROVAL_PERSON_ORGANIZATION ( #192, #15, #155 ) ;
#9 = DIRECTION ( 'NONE',  ( 3.491481338843133355E-15, -0.000000000000000000, 1.000000000000000000 ) ) ;
#10 = PERSON_AND_ORGANIZATION_ROLE ( 'creator' ) ;
#11 = CARTESIAN_POINT ( 'NONE',  ( 1.670837508328685961E-15, 0.000000000000000000, 0.4785468820183644278 ) ) ;
#12 = CARTESIAN_POINT ( 'NONE',  ( 1.326762908760390423E-13, 1.199999999999993072, 38.00000000000000000 ) ) ;
#13 = AXIS2_PLACEMENT_3D ( 'NONE', #12, #136, #73 ) ;
#14 = AXIS2_PLACEMENT_3D ( 'NONE', #11, #90, #176 ) ;
#15 = APPROVAL ( #175, 'UNSPECIFIED' ) ;
#16 = DIRECTION ( 'NONE',  ( 3.491481338843133355E-15, -0.000000000000000000, 1.000000000000000000 ) ) ;
#17 = FACE_BOUND ( 'NONE', #106, .T. ) ;
#18 = APPLICATION_PROTOCOL_DEFINITION ( 'international standard', 'config_control_design', 1994, #247 ) ;
#19 = VERTEX_POINT ( 'NONE', #21 ) ;
#20 = APPROVAL ( #114, 'UNSPECIFIED' ) ;
#21 = CARTESIAN_POINT ( 'NONE',  ( 0.9850000000000008749, 0.000000000000000000, 0.2476067743425146850 ) ) ;
#22 =( LENGTH_UNIT ( ) NAMED_UNIT ( * ) SI_UNIT ( .MILLI., .METRE. ) );
#23 = ORIENTED_EDGE ( 'NONE', *, *, #181, .F. ) ;
#24 = COORDINATED_UNIVERSAL_TIME_OFFSET ( 1, 0, .AHEAD. ) ;
#25 = EDGE_CURVE ( 'NONE', #42, #42, #183, .T. ) ;
#26 = EDGE_LOOP ( 'NONE', ( #221 ) ) ;
#27 = ORIENTED_EDGE ( 'NONE', *, *, #74, .T. ) ;
#28 = SHAPE_DEFINITION_REPRESENTATION ( #124, #38 ) ;
#29 = CARTESIAN_POINT ( 'NONE',  ( 2.444036937190193033E-14, 0.000000000000000000, 6.999999999999999112 ) ) ;
#30 = DATE_TIME_ROLE ( 'classification_date' ) ;
#31 = FACE_OUTER_BOUND ( 'NONE', #107, .T. ) ;
#32 = CONICAL_SURFACE ( 'NONE', #111, 0.9849999999999999867, 1.047197551196605181 ) ;
#33 = PLANE ( 'NONE',  #13 ) ;
#34 = FACE_BOUND ( 'NONE', #169, .T. ) ;
#35 = DIRECTION ( 'NONE',  ( 3.491481338843133355E-15, -0.000000000000000000, 1.000000000000000000 ) ) ;
#36 = EDGE_CURVE ( 'NONE', #19, #19, #249, .T. ) ;
#37 = DIRECTION ( 'NONE',  ( -1.000000000000000000, 0.000000000000000000, 3.467245526222679285E-15 ) ) ;
#38 = ADVANCED_BREP_SHAPE_REPRESENTATION ( '965994', ( #113, #166 ), #86 ) ;
#39 = FACE_OUTER_BOUND ( 'NONE', #236, .T. ) ;
#40 = CC_DESIGN_DATE_AND_TIME_ASSIGNMENT ( #109, #30, ( #239 ) ) ;
#41 = AXIS2_PLACEMENT_3D ( 'NONE', #118, #35, #203 ) ;
#42 = VERTEX_POINT ( 'NONE', #57 ) ;
#43 = CIRCLE ( 'NONE', #231, 0.6190741737109289877 ) ;
#44 = PERSON_AND_ORGANIZATION_ROLE ( 'classification_officer' ) ;
#45 = EDGE_LOOP ( 'NONE', ( #123 ) ) ;
#46 = DIRECTION ( 'NONE',  ( 1.000000000000000000, 0.000000000000000000, -3.491481338843133355E-15 ) ) ;
#47 = PERSON_AND_ORGANIZATION ( #6, #49 ) ;
#48 = DIRECTION ( 'NONE',  ( 1.000000000000000000, 0.000000000000000000, -3.469446951953614189E-15 ) ) ;
#49 = ORGANIZATION ( 'UNSPECIFIED', 'UNSPECIFIED', '' ) ;
#50 = DIRECTION ( 'NONE',  ( 1.000000000000000000, 0.000000000000000000, -3.491481338843133355E-15 ) ) ;
#51 = CARTESIAN_POINT ( 'NONE',  ( 8.645144319880447645E-16, 0.000000000000000000, 0.2476067743425180989 ) ) ;
#52 = CARTESIAN_POINT ( 'NONE',  ( 1.326762908760390423E-13, 0.000000000000000000, 38.00000000000000000 ) ) ;
#53 = AXIS2_PLACEMENT_3D ( 'NONE', #51, #9, #204 ) ;
#54 = AXIS2_PLACEMENT_3D ( 'NONE', #229, #197, #274 ) ;
#55 = APPLICATION_PROTOCOL_DEFINITION ( 'international standard', 'config_control_design', 1994, #153 ) ;
#56 = EDGE_CURVE ( 'NONE', #208, #208, #59, .T. ) ;
#57 = CARTESIAN_POINT ( 'NONE',  ( 1.200000000000125855, 0.000000000000000000, 37.99999999999999289 ) ) ;
#58 = ORIENTED_EDGE ( 'NONE', *, *, #36, .T. ) ;
#59 = CIRCLE ( 'NONE', #215, 0.5849999999999991873 ) ;
#60 = DIRECTION ( 'NONE',  ( 3.491481338843133355E-15, -0.000000000000000000, 1.000000000000000000 ) ) ;
#61 = EDGE_LOOP ( 'NONE', ( #62 ) ) ;
#62 = ORIENTED_EDGE ( 'NONE', *, *, #56, .T. ) ;
#63 = EDGE_LOOP ( 'NONE', ( #127 ) ) ;
#64 = AXIS2_PLACEMENT_3D ( 'NONE', #139, #140, #134 ) ;
#65 = PERSON_AND_ORGANIZATION ( #6, #49 ) ;
#66 = ORIENTED_EDGE ( 'NONE', *, *, #82, .F. ) ;
#67 = ADVANCED_FACE ( 'NONE', ( #88 ), #33, .F. ) ;
#68 = CARTESIAN_POINT ( 'NONE',  ( 2.534403123801456562E-14, 0.000000000000000000, 7.258819045102515410 ) ) ;
#69 = COORDINATED_UNIVERSAL_TIME_OFFSET ( 1, 0, .AHEAD. ) ;
#70 = CARTESIAN_POINT ( 'NONE',  ( 3.682283457191141037E-14, 0.000000000000000000, 10.54647898651300864 ) ) ;
#71 = COORDINATED_UNIVERSAL_TIME_OFFSET ( 1, 0, .AHEAD. ) ;
#72 = CC_DESIGN_APPROVAL ( #20, ( #239 ) ) ;
#73 = DIRECTION ( 'NONE',  ( -1.000000000000000000, 0.000000000000000000, 3.491481338843133355E-15 ) ) ;
#74 = EDGE_CURVE ( 'NONE', #80, #80, #92, .T. ) ;
#75 = CIRCLE ( 'NONE', #266, 0.9849999999999999867 ) ;
#76 = FACE_OUTER_BOUND ( 'NONE', #263, .T. ) ;
#77 = FACE_OUTER_BOUND ( 'NONE', #26, .T. ) ;
#78 = CC_DESIGN_APPROVAL ( #15, ( #248 ) ) ;
#79 = DIRECTION ( 'NONE',  ( 1.000000000000000000, 0.000000000000000000, 0.000000000000000000 ) ) ;
#80 = VERTEX_POINT ( 'NONE', #126 ) ;
#81 = DIRECTION ( 'NONE',  ( 3.491481338843133355E-15, -0.000000000000000000, 1.000000000000000000 ) ) ;
#82 = EDGE_CURVE ( 'NONE', #103, #103, #75, .T. ) ;
#83 = DATE_AND_TIME ( #196, #84 ) ;
#84 = LOCAL_TIME ( 7, 46, 12.00000000000000000, #129 ) ;
#85 = APPROVAL_STATUS ( 'not_yet_approved' ) ;
#86 =( GEOMETRIC_REPRESENTATION_CONTEXT ( 3 ) GLOBAL_UNCERTAINTY_ASSIGNED_CONTEXT ( ( #262 ) ) GLOBAL_UNIT_ASSIGNED_CONTEXT ( ( #22, #1, #104 ) ) REPRESENTATION_CONTEXT ( 'NONE', 'WORKASPACE' ) );
#87 = CC_DESIGN_PERSON_AND_ORGANIZATION_ASSIGNMENT ( #135, #220, ( #248 ) ) ;
#88 = FACE_OUTER_BOUND ( 'NONE', #240, .T. ) ;
#89 = CALENDAR_DATE ( 2023, 27, 9 ) ;
#90 = DIRECTION ( 'NONE',  ( 3.491481338843133355E-15, -0.000000000000000000, 1.000000000000000000 ) ) ;
#91 = CYLINDRICAL_SURFACE ( 'NONE', #178, 0.9849999999999999867 ) ;
#92 = CIRCLE ( 'NONE', #254, 0.5849999999999998535 ) ;
#93 = AXIS2_PLACEMENT_3D ( 'NONE', #186, #146, #121 ) ;
#94 = DIRECTION ( 'NONE',  ( 3.491481338843133355E-15, -0.000000000000000000, 1.000000000000000000 ) ) ;
#95 = CONICAL_SURFACE ( 'NONE', #201, 0.5849999999999998535, 1.047197551196592302 ) ;
#96 = DIRECTION ( 'NONE',  ( 3.491481338843133355E-15, -0.000000000000000000, 1.000000000000000000 ) ) ;
#97 = VERTEX_POINT ( 'NONE', #148 ) ;
#98 = ADVANCED_FACE ( 'NONE', ( #76, #243 ), #95, .T. ) ;
#99 = CARTESIAN_POINT ( 'NONE',  ( 1.316288464743861212E-13, 0.000000000000000000, 37.69999999999999574 ) ) ;
#100 = CONICAL_SURFACE ( 'NONE', #64, 0.6190741737109289877, 0.2617993877991429685 ) ;
#101 = AXIS2_PLACEMENT_3D ( 'NONE', #199, #162, #177 ) ;
#102 = CIRCLE ( 'NONE', #150, 1.499999999999996225 ) ;
#103 = VERTEX_POINT ( 'NONE', #182 ) ;
#104 =( NAMED_UNIT ( * ) SI_UNIT ( $, .STERADIAN. ) SOLID_ANGLE_UNIT ( ) );
#105 = EDGE_CURVE ( 'NONE', #170, #170, #43, .T. ) ;
#106 = EDGE_LOOP ( 'NONE', ( #4 ) ) ;
#107 = EDGE_LOOP ( 'NONE', ( #267 ) ) ;
#108 = CC_DESIGN_DATE_AND_TIME_ASSIGNMENT ( #83, #242, ( #7 ) ) ;
#109 = DATE_AND_TIME ( #224, #173 ) ;
#110 = PRODUCT ( '965994', '965994', '', ( #260 ) ) ;
#111 = AXIS2_PLACEMENT_3D ( 'NONE', #3, #210, #37 ) ;
#112 = DIRECTION ( 'NONE',  ( 3.491481338843133355E-15, -0.000000000000000000, 1.000000000000000000 ) ) ;
#113 = MANIFOLD_SOLID_BREP ( 'Corps-Déplacer/Copier1', #237 ) ;
#114 = APPROVAL_STATUS ( 'not_yet_approved' ) ;
#115 = CARTESIAN_POINT ( 'NONE',  ( 0.000000000000000000, 0.000000000000000000, 0.000000000000000000 ) ) ;
#116 = TOROIDAL_SURFACE ( 'NONE', #101, 1.584999999999999076, 1.000000000000000000 ) ;
#117 = FACE_OUTER_BOUND ( 'NONE', #212, .T. ) ;
#118 = CARTESIAN_POINT ( 'NONE',  ( 1.326762908760390423E-13, 0.000000000000000000, 38.00000000000000000 ) ) ;
#119 = DIRECTION ( 'NONE',  ( 1.000000000000000000, 0.000000000000000000, -2.965339275174033280E-15 ) ) ;
#120 = VERTEX_POINT ( 'NONE', #2 ) ;
#121 = DIRECTION ( 'NONE',  ( 1.000000000000000000, 0.000000000000000000, -4.625929269271491633E-15 ) ) ;
#122 = CC_DESIGN_SECURITY_CLASSIFICATION ( #239, ( #248 ) ) ;
#123 = ORIENTED_EDGE ( 'NONE', *, *, #265, .F. ) ;
#124 = PRODUCT_DEFINITION_SHAPE ( 'NONE', 'NONE',  #7 ) ;
#125 = ADVANCED_FACE ( 'NONE', ( #77 ), #156, .F. ) ;
#126 = CARTESIAN_POINT ( 'NONE',  ( 0.5849999999999998535, 0.000000000000000000, -2.042516583223232540E-15 ) ) ;
#127 = ORIENTED_EDGE ( 'NONE', *, *, #105, .F. ) ;
#128 = APPROVAL_DATE_TIME ( #244, #15 ) ;
#129 = COORDINATED_UNIVERSAL_TIME_OFFSET ( 1, 0, .AHEAD. ) ;
#130 = ADVANCED_FACE ( 'NONE', ( #141, #272 ), #116, .F. ) ;
#131 = COORDINATED_UNIVERSAL_TIME_OFFSET ( 1, 0, .AHEAD. ) ;
#132 = ORIENTED_EDGE ( 'NONE', *, *, #105, .T. ) ;
#133 = APPROVAL_DATE_TIME ( #191, #255 ) ;
#134 = DIRECTION ( 'NONE',  ( 1.000000000000000000, 0.000000000000000000, -2.802125415082846641E-15 ) ) ;
#135 = PERSON_AND_ORGANIZATION ( #6, #49 ) ;
#136 = DIRECTION ( 'NONE',  ( -3.491481338843133355E-15, 0.000000000000000000, -1.000000000000000000 ) ) ;
#137 = LOCAL_TIME ( 7, 46, 12.00000000000000000, #69 ) ;
#138 = ADVANCED_FACE ( 'NONE', ( #223, #250 ), #100, .T. ) ;
#139 = CARTESIAN_POINT ( 'NONE',  ( 2.534403123801456562E-14, 0.000000000000000000, 7.258819045102515410 ) ) ;
#140 = DIRECTION ( 'NONE',  ( 3.491481338843133355E-15, -0.000000000000000000, 1.000000000000000000 ) ) ;
#141 = FACE_OUTER_BOUND ( 'NONE', #63, .T. ) ;
#142 = PERSON_AND_ORGANIZATION ( #6, #49 ) ;
#143 = CARTESIAN_POINT ( 'NONE',  ( 0.6190741737109543008, 0.000000000000000000, 7.258819045102513634 ) ) ;
#144 = EDGE_LOOP ( 'NONE', ( #5 ) ) ;
#145 = PRODUCT_RELATED_PRODUCT_CATEGORY ( 'detail', '', ( #110 ) ) ;
#146 = DIRECTION ( 'NONE',  ( 3.491481338843133355E-15, -0.000000000000000000, 1.000000000000000000 ) ) ;
#147 = ORIENTED_EDGE ( 'NONE', *, *, #25, .F. ) ;
#148 = CARTESIAN_POINT ( 'NONE',  ( 1.500000000000127676, 0.000000000000000000, 37.69999999999998863 ) ) ;
#149 = CC_DESIGN_PERSON_AND_ORGANIZATION_ASSIGNMENT ( #47, #10, ( #248 ) ) ;
#150 = AXIS2_PLACEMENT_3D ( 'NONE', #99, #81, #257 ) ;
#151 = ORIENTED_EDGE ( 'NONE', *, *, #82, .T. ) ;
#152 = ORIENTED_EDGE ( 'NONE', *, *, #25, .T. ) ;
#153 = APPLICATION_CONTEXT ( 'configuration controlled 3d designs of mechanical parts and assemblies' ) ;
#154 = DIRECTION ( 'NONE',  ( 3.491481338843133355E-15, -0.000000000000000000, 1.000000000000000000 ) ) ;
#155 = APPROVAL_ROLE ( '' ) ;
#156 = PLANE ( 'NONE',  #238 ) ;
#157 = ADVANCED_FACE ( 'NONE', ( #161, #228 ), #91, .T. ) ;
#158 = APPROVAL_PERSON_ORGANIZATION ( #171, #20, #246 ) ;
#159 = SECURITY_CLASSIFICATION_LEVEL ( 'unclassified' ) ;
#160 = ADVANCED_FACE ( 'NONE', ( #34, #117 ), #273, .T. ) ;
#161 = FACE_OUTER_BOUND ( 'NONE', #144, .T. ) ;
#162 = DIRECTION ( 'NONE',  ( 3.491481338843133355E-15, -0.000000000000000000, 1.000000000000000000 ) ) ;
#163 = DIRECTION ( 'NONE',  ( 3.491481338843133355E-15, -0.000000000000000000, 1.000000000000000000 ) ) ;
#164 = EDGE_CURVE ( 'NONE', #120, #120, #172, .T. ) ;
#165 = CYLINDRICAL_SURFACE ( 'NONE', #195, 0.5849999999999996314 ) ;
#166 = AXIS2_PLACEMENT_3D ( 'NONE', #256, #235, #79 ) ;
#167 = CARTESIAN_POINT ( 'NONE',  ( 0.5850000000000235012, 0.000000000000000000, 6.999999999999997335 ) ) ;
#168 = FACE_OUTER_BOUND ( 'NONE', #241, .T. ) ;
#169 = EDGE_LOOP ( 'NONE', ( #147 ) ) ;
#170 = VERTEX_POINT ( 'NONE', #143 ) ;
#171 = PERSON_AND_ORGANIZATION ( #6, #49 ) ;
#172 = CIRCLE ( 'NONE', #14, 0.5849999999999999645 ) ;
#173 = LOCAL_TIME ( 7, 46, 12.00000000000000000, #71 ) ;
#174 = DIRECTION ( 'NONE',  ( 1.000000000000000000, 0.000000000000000000, -3.491481338843133355E-15 ) ) ;
#175 = APPROVAL_STATUS ( 'not_yet_approved' ) ;
#176 = DIRECTION ( 'NONE',  ( 1.000000000000000000, 0.000000000000000000, -3.521340389269159886E-15 ) ) ;
#177 = DIRECTION ( 'NONE',  ( 1.000000000000000000, 0.000000000000000000, -3.491481338843133355E-15 ) ) ;
#178 = AXIS2_PLACEMENT_3D ( 'NONE', #52, #112, #227 ) ;
#179 = CC_DESIGN_PERSON_AND_ORGANIZATION_ASSIGNMENT ( #65, #44, ( #239 ) ) ;
#180 = CARTESIAN_POINT ( 'NONE',  ( 8.063230763406655524E-16, 0.000000000000000000, 0.2309401076758532678 ) ) ;
#181 = EDGE_CURVE ( 'NONE', #187, #187, #226, .T. ) ;
#182 = CARTESIAN_POINT ( 'NONE',  ( 0.9850000000000008749, 0.000000000000000000, 0.2309401076758498261 ) ) ;
#183 = CIRCLE ( 'NONE', #41, 1.199999999999993072 ) ;
#184 = FACE_OUTER_BOUND ( 'NONE', #193, .T. ) ;
#185 = CC_DESIGN_PERSON_AND_ORGANIZATION_ASSIGNMENT ( #230, #205, ( #110 ) ) ;
#186 = CARTESIAN_POINT ( 'NONE',  ( 1.326762908760390423E-13, 0.000000000000000000, 38.00000000000000000 ) ) ;
#187 = VERTEX_POINT ( 'NONE', #211 ) ;
#188 = CYLINDRICAL_SURFACE ( 'NONE', #93, 1.499999999999998002 ) ;
#189 = AXIS2_PLACEMENT_3D ( 'NONE', #70, #245, #48 ) ;
#190 = EDGE_LOOP ( 'NONE', ( #23 ) ) ;
#191 = DATE_AND_TIME ( #194, #137 ) ;
#192 = PERSON_AND_ORGANIZATION ( #6, #49 ) ;
#193 = EDGE_LOOP ( 'NONE', ( #261 ) ) ;
#194 = CALENDAR_DATE ( 2023, 27, 9 ) ;
#195 = AXIS2_PLACEMENT_3D ( 'NONE', #258, #60, #233 ) ;
#196 = CALENDAR_DATE ( 2023, 27, 9 ) ;
#197 = DIRECTION ( 'NONE',  ( -3.491481338843133355E-15, 0.000000000000000000, -1.000000000000000000 ) ) ;
#198 = APPROVAL_DATE_TIME ( #218, #20 ) ;
#199 = CARTESIAN_POINT ( 'NONE',  ( 2.444036937190193349E-14, 0.000000000000000000, 7.000000000000000000 ) ) ;
#200 = CC_DESIGN_PERSON_AND_ORGANIZATION_ASSIGNMENT ( #214, #222, ( #7 ) ) ;
#201 = AXIS2_PLACEMENT_3D ( 'NONE', #269, #16, #50 ) ;
#202 = LOCAL_TIME ( 7, 46, 12.00000000000000000, #24 ) ;
#203 = DIRECTION ( 'NONE',  ( 1.000000000000000000, 0.000000000000000000, -5.782411586589390376E-15 ) ) ;
#204 = DIRECTION ( 'NONE',  ( 1.000000000000000000, 0.000000000000000000, -3.467245526222679285E-15 ) ) ;
#205 = PERSON_AND_ORGANIZATION_ROLE ( 'design_owner' ) ;
#206 = ADVANCED_FACE ( 'NONE', ( #225, #31 ), #188, .T. ) ;
#207 = CC_DESIGN_APPROVAL ( #255, ( #7 ) ) ;
#208 = VERTEX_POINT ( 'NONE', #167 ) ;
#209 = LOCAL_TIME ( 7, 46, 12.00000000000000000, #131 ) ;
#210 = DIRECTION ( 'NONE',  ( -3.491481338843133355E-15, 0.000000000000000000, -1.000000000000000000 ) ) ;
#211 = CARTESIAN_POINT ( 'NONE',  ( 1.500000000000036859, 0.000000000000000000, 10.54647898651300331 ) ) ;
#212 = EDGE_LOOP ( 'NONE', ( #232 ) ) ;
#213 = DESIGN_CONTEXT ( 'detailed design', #247, 'design' ) ;
#214 = PERSON_AND_ORGANIZATION ( #6, #49 ) ;
#215 = AXIS2_PLACEMENT_3D ( 'NONE', #29, #154, #119 ) ;
#216 = ADVANCED_FACE ( 'NONE', ( #184, #168 ), #165, .T. ) ;
#217 = EDGE_LOOP ( 'NONE', ( #27 ) ) ;
#218 = DATE_AND_TIME ( #89, #209 ) ;
#219 = EDGE_LOOP ( 'NONE', ( #132 ) ) ;
#220 = PERSON_AND_ORGANIZATION_ROLE ( 'design_supplier' ) ;
#221 = ORIENTED_EDGE ( 'NONE', *, *, #74, .F. ) ;
#222 = PERSON_AND_ORGANIZATION_ROLE ( 'creator' ) ;
#223 = FACE_OUTER_BOUND ( 'NONE', #190, .T. ) ;
#224 = CALENDAR_DATE ( 2023, 27, 9 ) ;
#225 = FACE_OUTER_BOUND ( 'NONE', #45, .T. ) ;
#226 = CIRCLE ( 'NONE', #189, 1.500000000000000000 ) ;
#227 = DIRECTION ( 'NONE',  ( 1.000000000000000000, 0.000000000000000000, 0.000000000000000000 ) ) ;
#228 = FACE_OUTER_BOUND ( 'NONE', #234, .T. ) ;
#229 = CARTESIAN_POINT ( 'NONE',  ( 1.316288464743861212E-13, 0.000000000000000000, 37.69999999999999574 ) ) ;
#230 = PERSON_AND_ORGANIZATION ( #6, #49 ) ;
#231 = AXIS2_PLACEMENT_3D ( 'NONE', #68, #94, #275 ) ;
#232 = ORIENTED_EDGE ( 'NONE', *, *, #265, .T. ) ;
#233 = DIRECTION ( 'NONE',  ( 1.000000000000000000, 0.000000000000000000, 0.000000000000000000 ) ) ;
#234 = EDGE_LOOP ( 'NONE', ( #151 ) ) ;
#235 = DIRECTION ( 'NONE',  ( 0.000000000000000000, 0.000000000000000000, 1.000000000000000000 ) ) ;
#236 = EDGE_LOOP ( 'NONE', ( #58 ) ) ;
#237 = CLOSED_SHELL ( 'NONE', ( #125, #98, #157, #251, #216, #160, #67, #130, #138, #206 ) ) ;
#238 = AXIS2_PLACEMENT_3D ( 'NONE', #253, #271, #46 ) ;
#239 = SECURITY_CLASSIFICATION ( '', '', #159 ) ;
#240 = EDGE_LOOP ( 'NONE', ( #152 ) ) ;
#241 = EDGE_LOOP ( 'NONE', ( #259 ) ) ;
#242 = DATE_TIME_ROLE ( 'creation_date' ) ;
#243 = FACE_BOUND ( 'NONE', #217, .T. ) ;
#244 = DATE_AND_TIME ( #268, #202 ) ;
#245 = DIRECTION ( 'NONE',  ( 3.491481338843133355E-15, -0.000000000000000000, 1.000000000000000000 ) ) ;
#246 = APPROVAL_ROLE ( '' ) ;
#247 = APPLICATION_CONTEXT ( 'configuration controlled 3d designs of mechanical parts and assemblies' ) ;
#248 = PRODUCT_DEFINITION_FORMATION_WITH_SPECIFIED_SOURCE ( 'ANY', '', #110, .NOT_KNOWN. ) ;
#249 = CIRCLE ( 'NONE', #53, 0.9849999999999999867 ) ;
#250 = FACE_BOUND ( 'NONE', #219, .T. ) ;
#251 = ADVANCED_FACE ( 'NONE', ( #17, #39 ), #32, .T. ) ;
#252 = DIRECTION ( 'NONE',  ( 1.000000000000000000, 0.000000000000000000, -3.494763347859366968E-15 ) ) ;
#253 = CARTESIAN_POINT ( 'NONE',  ( 0.000000000000000000, 0.000000000000000000, 0.000000000000000000 ) ) ;
#254 = AXIS2_PLACEMENT_3D ( 'NONE', #115, #163, #174 ) ;
#255 = APPROVAL ( #85, 'UNSPECIFIED' ) ;
#256 = CARTESIAN_POINT ( 'NONE',  ( 0.000000000000000000, 0.000000000000000000, 0.000000000000000000 ) ) ;
#257 = DIRECTION ( 'NONE',  ( 1.000000000000000000, 0.000000000000000000, -4.625929269271497155E-15 ) ) ;
#258 = CARTESIAN_POINT ( 'NONE',  ( 1.326762908760390423E-13, 0.000000000000000000, 38.00000000000000000 ) ) ;
#259 = ORIENTED_EDGE ( 'NONE', *, *, #164, .T. ) ;
#260 = MECHANICAL_CONTEXT ( 'NONE', #153, 'mechanical' ) ;
#261 = ORIENTED_EDGE ( 'NONE', *, *, #56, .F. ) ;
#262 = UNCERTAINTY_MEASURE_WITH_UNIT (LENGTH_MEASURE( 1.000000000000000082E-05 ), #22, 'distance_accuracy_value', 'NONE');
#263 = EDGE_LOOP ( 'NONE', ( #66 ) ) ;
#264 = APPROVAL_PERSON_ORGANIZATION ( #142, #255, #270 ) ;
#265 = EDGE_CURVE ( 'NONE', #97, #97, #102, .T. ) ;
#266 = AXIS2_PLACEMENT_3D ( 'NONE', #180, #96, #252 ) ;
#267 = ORIENTED_EDGE ( 'NONE', *, *, #181, .T. ) ;
#268 = CALENDAR_DATE ( 2023, 27, 9 ) ;
#269 = CARTESIAN_POINT ( 'NONE',  ( 0.000000000000000000, 0.000000000000000000, 0.000000000000000000 ) ) ;
#270 = APPROVAL_ROLE ( '' ) ;
#271 = DIRECTION ( 'NONE',  ( 3.491481338843133355E-15, -0.000000000000000000, 1.000000000000000000 ) ) ;
#272 = FACE_OUTER_BOUND ( 'NONE', #61, .T. ) ;
#273 = CONICAL_SURFACE ( 'NONE', #54, 1.499999999999996225, 0.7853981633974504994 ) ;
#274 = DIRECTION ( 'NONE',  ( -1.000000000000000000, 0.000000000000000000, 4.625929269271497155E-15 ) ) ;
#275 = DIRECTION ( 'NONE',  ( 1.000000000000000000, 0.000000000000000000, -2.802125415082846641E-15 ) ) ;
ENDSEC;
END-ISO-10303-21;
