ISO-10303-21;
HEADER;
FILE_DESCRIPTION (( 'STEP AP203' ),
    '1' );
FILE_NAME ('965993.step',
    '2023-09-27T05:46:12',
    ( '' ),
    ( '' ),
    'SwSTEP 2.0',
    'SolidWorks 2022',
    '' );
FILE_SCHEMA (( 'CONFIG_CONTROL_DESIGN' ));
ENDSEC;

DATA;
#1 = APPROVAL_DATE_TIME ( #43, #8 ) ;
#2 = EDGE_LOOP ( 'NONE', ( #272 ) ) ;
#3 = PERSON_AND_ORGANIZATION ( #134, #251 ) ;
#4 = EDGE_LOOP ( 'NONE', ( #142 ) ) ;
#5 = CONICAL_SURFACE ( 'NONE', #83, 1.499999999999996225, 0.7853981633974504994 ) ;
#6 = CARTESIAN_POINT ( 'NONE',  ( 7.962440378863963578E-16, 0.000000000000000000, 0.2280533563299019795 ) ) ;
#7 = DIRECTION ( 'NONE',  ( -3.491481338843133355E-15, 0.000000000000000000, -1.000000000000000000 ) ) ;
#8 = APPROVAL ( #19, 'UNSPECIFIED' ) ;
#9 = DIRECTION ( 'NONE',  ( 3.491481338843133355E-15, -0.000000000000000000, 1.000000000000000000 ) ) ;
#10 = CARTESIAN_POINT ( 'NONE',  ( 2.164718430082742680E-14, 0.000000000000000000, 6.200000000000000178 ) ) ;
#11 = CC_DESIGN_PERSON_AND_ORGANIZATION_ASSIGNMENT ( #3, #69, ( #78 ) ) ;
#12 = AXIS2_PLACEMENT_3D ( 'NONE', #14, #181, #162 ) ;
#13 = PRODUCT_DEFINITION ( 'UNKNOWN', '', #20, #51 ) ;
#14 = CARTESIAN_POINT ( 'NONE',  ( 3.591905543462192459E-14, 0.000000000000000000, 10.28762635361050926 ) ) ;
#15 = AXIS2_PLACEMENT_3D ( 'NONE', #92, #7, #198 ) ;
#16 = VERTEX_POINT ( 'NONE', #224 ) ;
#17 = DIRECTION ( 'NONE',  ( -1.000000000000000000, 0.000000000000000000, 4.625929269271497155E-15 ) ) ;
#18 = EDGE_LOOP ( 'NONE', ( #188 ) ) ;
#19 = APPROVAL_STATUS ( 'not_yet_approved' ) ;
#20 = PRODUCT_DEFINITION_FORMATION_WITH_SPECIFIED_SOURCE ( 'ANY', '', #137, .NOT_KNOWN. ) ;
#21 = ORIENTED_EDGE ( 'NONE', *, *, #39, .F. ) ;
#22 = VERTEX_POINT ( 'NONE', #81 ) ;
#23 = APPLICATION_PROTOCOL_DEFINITION ( 'international standard', 'config_control_design', 1994, #37 ) ;
#24 = ORIENTED_EDGE ( 'NONE', *, *, #108, .F. ) ;
#25 = FACE_OUTER_BOUND ( 'NONE', #106, .T. ) ;
#26 = AXIS2_PLACEMENT_3D ( 'NONE', #179, #155, #133 ) ;
#27 = DIRECTION ( 'NONE',  ( 3.491481338843133355E-15, -0.000000000000000000, 1.000000000000000000 ) ) ;
#28 = FACE_OUTER_BOUND ( 'NONE', #209, .T. ) ;
#29 = FACE_BOUND ( 'NONE', #256, .T. ) ;
#30 = LOCAL_TIME ( 7, 46, 12.00000000000000000, #33 ) ;
#31 = FACE_OUTER_BOUND ( 'NONE', #4, .T. ) ;
#32 = CARTESIAN_POINT ( 'NONE',  ( 0.4400000000000210409, 0.000000000000000000, 6.199999999999995737 ) ) ;
#33 = COORDINATED_UNIVERSAL_TIME_OFFSET ( 1, 0, .AHEAD. ) ;
#34 = MANIFOLD_SOLID_BREP ( 'Corps-Déplacer/Copier1', #185 ) ;
#35 = PERSON_AND_ORGANIZATION ( #134, #251 ) ;
#36 = AXIS2_PLACEMENT_3D ( 'NONE', #70, #150, #237 ) ;
#37 = APPLICATION_CONTEXT ( 'configuration controlled 3d designs of mechanical parts and assemblies' ) ;
#38 =( LENGTH_UNIT ( ) NAMED_UNIT ( * ) SI_UNIT ( .MILLI., .METRE. ) );
#39 = EDGE_CURVE ( 'NONE', #16, #16, #182, .T. ) ;
#40 = ORIENTED_EDGE ( 'NONE', *, *, #253, .F. ) ;
#41 = CARTESIAN_POINT ( 'NONE',  ( 1.500000000000127676, 0.000000000000000000, 37.69999999999998863 ) ) ;
#42 = EDGE_LOOP ( 'NONE', ( #207 ) ) ;
#43 = DATE_AND_TIME ( #192, #191 ) ;
#44 = EDGE_CURVE ( 'NONE', #158, #158, #257, .T. ) ;
#45 = EDGE_LOOP ( 'NONE', ( #40 ) ) ;
#46 = APPROVAL_ROLE ( '' ) ;
#47 = CARTESIAN_POINT ( 'NONE',  ( 0.000000000000000000, 0.000000000000000000, 0.000000000000000000 ) ) ;
#48 = DIRECTION ( 'NONE',  ( 3.491481338843133355E-15, -0.000000000000000000, 1.000000000000000000 ) ) ;
#49 = DIRECTION ( 'NONE',  ( 1.000000000000000000, 0.000000000000000000, -3.449734185181150651E-15 ) ) ;
#50 = DIRECTION ( 'NONE',  ( 1.000000000000000000, 0.000000000000000000, -3.491481338843132961E-15 ) ) ;
#51 = DESIGN_CONTEXT ( 'detailed design', #37, 'design' ) ;
#52 = DIRECTION ( 'NONE',  ( 3.491481338843133355E-15, -0.000000000000000000, 1.000000000000000000 ) ) ;
#53 = CIRCLE ( 'NONE', #229, 0.4399999999999993916 ) ;
#54 = ADVANCED_BREP_SHAPE_REPRESENTATION ( '965993', ( #34, #97 ), #118 ) ;
#55 = DIRECTION ( 'NONE',  ( 3.491481338843133355E-15, -0.000000000000000000, 1.000000000000000000 ) ) ;
#56 = ADVANCED_FACE ( 'NONE', ( #145, #233 ), #5, .T. ) ;
#57 = LOCAL_TIME ( 7, 46, 12.00000000000000000, #130 ) ;
#58 = VERTEX_POINT ( 'NONE', #99 ) ;
#59 = CALENDAR_DATE ( 2023, 27, 9 ) ;
#60 = CC_DESIGN_PERSON_AND_ORGANIZATION_ASSIGNMENT ( #170, #141, ( #13 ) ) ;
#61 = PERSON_AND_ORGANIZATION ( #134, #251 ) ;
#62 = ORIENTED_EDGE ( 'NONE', *, *, #258, .T. ) ;
#63 = PERSON_AND_ORGANIZATION_ROLE ( 'design_owner' ) ;
#64 = ORIENTED_EDGE ( 'NONE', *, *, #258, .F. ) ;
#65 = EDGE_LOOP ( 'NONE', ( #64 ) ) ;
#66 = ADVANCED_FACE ( 'NONE', ( #230, #152 ), #127, .T. ) ;
#67 = CC_DESIGN_APPROVAL ( #8, ( #13 ) ) ;
#68 = DIRECTION ( 'NONE',  ( 1.000000000000000000, 0.000000000000000000, -5.782411586589390376E-15 ) ) ;
#69 = PERSON_AND_ORGANIZATION_ROLE ( 'classification_officer' ) ;
#70 = CARTESIAN_POINT ( 'NONE',  ( 0.000000000000000000, 0.000000000000000000, 0.000000000000000000 ) ) ;
#71 = DIRECTION ( 'NONE',  ( 3.491481338843133355E-15, -0.000000000000000000, 1.000000000000000000 ) ) ;
#72 = FACE_OUTER_BOUND ( 'NONE', #208, .T. ) ;
#73 = LOCAL_TIME ( 7, 46, 12.00000000000000000, #101 ) ;
#74 = FACE_OUTER_BOUND ( 'NONE', #190, .T. ) ;
#75 = DIRECTION ( 'NONE',  ( 3.491481338843133355E-15, -0.000000000000000000, 1.000000000000000000 ) ) ;
#76 = CARTESIAN_POINT ( 'NONE',  ( 0.4399999999999999467, 0.000000000000000000, -1.536251789090978361E-15 ) ) ;
#77 = DATE_AND_TIME ( #59, #30 ) ;
#78 = SECURITY_CLASSIFICATION ( '', '', #195 ) ;
#79 = CC_DESIGN_DATE_AND_TIME_ASSIGNMENT ( #246, #266, ( #78 ) ) ;
#80 = DIRECTION ( 'NONE',  ( 1.000000000000000000, 0.000000000000000000, 0.000000000000000000 ) ) ;
#81 = CARTESIAN_POINT ( 'NONE',  ( 1.500000000000035971, 0.000000000000000000, 10.28762635361050570 ) ) ;
#82 = ORIENTED_EDGE ( 'NONE', *, *, #44, .T. ) ;
#83 = AXIS2_PLACEMENT_3D ( 'NONE', #148, #260, #17 ) ;
#84 = APPROVAL_STATUS ( 'not_yet_approved' ) ;
#85 = EDGE_LOOP ( 'NONE', ( #24 ) ) ;
#86 = ORIENTED_EDGE ( 'NONE', *, *, #90, .T. ) ;
#87 = CALENDAR_DATE ( 2023, 27, 9 ) ;
#88 = AXIS2_PLACEMENT_3D ( 'NONE', #202, #75, #201 ) ;
#89 = EDGE_LOOP ( 'NONE', ( #123 ) ) ;
#90 = EDGE_CURVE ( 'NONE', #160, #160, #165, .T. ) ;
#91 = DIRECTION ( 'NONE',  ( 1.000000000000000000, 0.000000000000000000, -3.659181563082931671E-15 ) ) ;
#92 = CARTESIAN_POINT ( 'NONE',  ( 8.689832324456202497E-16, 0.000000000000000000, 0.2488866896632330183 ) ) ;
#93 = FACE_OUTER_BOUND ( 'NONE', #2, .T. ) ;
#94 = CONICAL_SURFACE ( 'NONE', #210, 0.4399999999999999467, 1.047197551196598075 ) ;
#95 = CARTESIAN_POINT ( 'NONE',  ( 2.255084616694006209E-14, 0.000000000000000000, 6.458819045102516476 ) ) ;
#96 = CARTESIAN_POINT ( 'NONE',  ( 1.326762908760390423E-13, 0.000000000000000000, 38.00000000000000000 ) ) ;
#97 = AXIS2_PLACEMENT_3D ( 'NONE', #121, #189, #80 ) ;
#98 = APPROVAL_DATE_TIME ( #77, #244 ) ;
#99 = CARTESIAN_POINT ( 'NONE',  ( 0.8350000000000006306, 0.000000000000000000, 0.2280533563298990651 ) ) ;
#100 = CC_DESIGN_SECURITY_CLASSIFICATION ( #78, ( #20 ) ) ;
#101 = COORDINATED_UNIVERSAL_TIME_OFFSET ( 1, 0, .AHEAD. ) ;
#102 = ORIENTED_EDGE ( 'NONE', *, *, #117, .T. ) ;
#103 = EDGE_CURVE ( 'NONE', #58, #58, #268, .T. ) ;
#104 = APPROVAL_PERSON_ORGANIZATION ( #61, #8, #143 ) ;
#105 = ORIENTED_EDGE ( 'NONE', *, *, #108, .T. ) ;
#106 = EDGE_LOOP ( 'NONE', ( #273 ) ) ;
#107 = PERSON_AND_ORGANIZATION_ROLE ( 'design_supplier' ) ;
#108 = EDGE_CURVE ( 'NONE', #204, #204, #53, .T. ) ;
#109 = CARTESIAN_POINT ( 'NONE',  ( 2.164718430082741734E-14, 0.000000000000000000, 6.199999999999997513 ) ) ;
#110 = FACE_BOUND ( 'NONE', #213, .T. ) ;
#111 = DIRECTION ( 'NONE',  ( 1.000000000000000000, 0.000000000000000000, -3.942553354492748560E-15 ) ) ;
#112 = ADVANCED_FACE ( 'NONE', ( #262, #29 ), #94, .T. ) ;
#113 = CARTESIAN_POINT ( 'NONE',  ( 1.326762908760390423E-13, 0.000000000000000000, 38.00000000000000000 ) ) ;
#114 = TOROIDAL_SURFACE ( 'NONE', #263, 1.439999999999999503, 1.000000000000000000 ) ;
#115 = FACE_OUTER_BOUND ( 'NONE', #45, .T. ) ;
#116 = VERTEX_POINT ( 'NONE', #76 ) ;
#117 = EDGE_CURVE ( 'NONE', #116, #116, #206, .T. ) ;
#118 =( GEOMETRIC_REPRESENTATION_CONTEXT ( 3 ) GLOBAL_UNCERTAINTY_ASSIGNED_CONTEXT ( ( #136 ) ) GLOBAL_UNIT_ASSIGNED_CONTEXT ( ( #38, #250, #232 ) ) REPRESENTATION_CONTEXT ( 'NONE', 'WORKASPACE' ) );
#119 = CC_DESIGN_PERSON_AND_ORGANIZATION_ASSIGNMENT ( #173, #235, ( #20 ) ) ;
#120 = CALENDAR_DATE ( 2023, 27, 9 ) ;
#121 = CARTESIAN_POINT ( 'NONE',  ( 0.000000000000000000, 0.000000000000000000, 0.000000000000000000 ) ) ;
#122 = MECHANICAL_CONTEXT ( 'NONE', #151, 'mechanical' ) ;
#123 = ORIENTED_EDGE ( 'NONE', *, *, #157, .F. ) ;
#124 = PERSON_AND_ORGANIZATION ( #134, #251 ) ;
#125 = ORIENTED_EDGE ( 'NONE', *, *, #39, .T. ) ;
#126 = CIRCLE ( 'NONE', #217, 1.499999999999996225 ) ;
#127 = CONICAL_SURFACE ( 'NONE', #15, 0.8349999999999999645, 1.047197551196598075 ) ;
#128 = CALENDAR_DATE ( 2023, 27, 9 ) ;
#129 = ADVANCED_FACE ( 'NONE', ( #138, #93 ), #219, .T. ) ;
#130 = COORDINATED_UNIVERSAL_TIME_OFFSET ( 1, 0, .AHEAD. ) ;
#131 = DIRECTION ( 'NONE',  ( 3.491481338843133355E-15, -0.000000000000000000, 1.000000000000000000 ) ) ;
#132 = CIRCLE ( 'NONE', #12, 1.500000000000000000 ) ;
#133 = DIRECTION ( 'NONE',  ( 1.000000000000000000, 0.000000000000000000, -4.625929269271491633E-15 ) ) ;
#134 = PERSON ( 'UNSPECIFIED', 'UNSPECIFIED', 'UNSPECIFIED', ('UNSPECIFIED'), ('UNSPECIFIED'), ('UNSPECIFIED') ) ;
#135 = DIRECTION ( 'NONE',  ( 3.491481338843133355E-15, -0.000000000000000000, 1.000000000000000000 ) ) ;
#136 = UNCERTAINTY_MEASURE_WITH_UNIT (LENGTH_MEASURE( 1.000000000000000082E-05 ), #38, 'distance_accuracy_value', 'NONE');
#137 = PRODUCT ( '965993', '965993', '', ( #122 ) ) ;
#138 = FACE_OUTER_BOUND ( 'NONE', #85, .T. ) ;
#139 = DIRECTION ( 'NONE',  ( 1.000000000000000000, 0.000000000000000000, -3.491481338843133355E-15 ) ) ;
#140 = AXIS2_PLACEMENT_3D ( 'NONE', #96, #131, #223 ) ;
#141 = PERSON_AND_ORGANIZATION_ROLE ( 'creator' ) ;
#142 = ORIENTED_EDGE ( 'NONE', *, *, #117, .F. ) ;
#143 = APPROVAL_ROLE ( '' ) ;
#144 = EDGE_LOOP ( 'NONE', ( #82 ) ) ;
#145 = FACE_BOUND ( 'NONE', #193, .T. ) ;
#146 = APPROVAL_PERSON_ORGANIZATION ( #35, #244, #225 ) ;
#147 = DATE_AND_TIME ( #128, #73 ) ;
#148 = CARTESIAN_POINT ( 'NONE',  ( 1.316288464743861212E-13, 0.000000000000000000, 37.69999999999999574 ) ) ;
#149 = PERSON_AND_ORGANIZATION ( #134, #251 ) ;
#150 = DIRECTION ( 'NONE',  ( 3.491481338843133355E-15, -0.000000000000000000, 1.000000000000000000 ) ) ;
#151 = APPLICATION_CONTEXT ( 'configuration controlled 3d designs of mechanical parts and assemblies' ) ;
#152 = FACE_OUTER_BOUND ( 'NONE', #144, .T. ) ;
#153 = CONICAL_SURFACE ( 'NONE', #88, 0.4740741737109291920, 0.2617993877991429685 ) ;
#154 = CARTESIAN_POINT ( 'NONE',  ( 0.000000000000000000, 0.000000000000000000, 0.000000000000000000 ) ) ;
#155 = DIRECTION ( 'NONE',  ( 3.491481338843133355E-15, -0.000000000000000000, 1.000000000000000000 ) ) ;
#156 = CYLINDRICAL_SURFACE ( 'NONE', #140, 0.8349999999999999645 ) ;
#157 = EDGE_CURVE ( 'NONE', #184, #184, #234, .T. ) ;
#158 = VERTEX_POINT ( 'NONE', #243 ) ;
#159 = AXIS2_PLACEMENT_3D ( 'NONE', #261, #48, #49 ) ;
#160 = VERTEX_POINT ( 'NONE', #248 ) ;
#161 = CC_DESIGN_PERSON_AND_ORGANIZATION_ASSIGNMENT ( #149, #107, ( #20 ) ) ;
#162 = DIRECTION ( 'NONE',  ( 1.000000000000000000, 0.000000000000000000, -3.469446951953614189E-15 ) ) ;
#163 = APPROVAL_STATUS ( 'not_yet_approved' ) ;
#164 = ADVANCED_FACE ( 'NONE', ( #28 ), #215, .F. ) ;
#165 = CIRCLE ( 'NONE', #205, 0.4740741737109291920 ) ;
#166 = APPLICATION_PROTOCOL_DEFINITION ( 'international standard', 'config_control_design', 1994, #151 ) ;
#167 = CARTESIAN_POINT ( 'NONE',  ( 1.326762908760390423E-13, 0.000000000000000000, 38.00000000000000000 ) ) ;
#168 = VERTEX_POINT ( 'NONE', #41 ) ;
#169 = DIRECTION ( 'NONE',  ( 3.491481338843133355E-15, -0.000000000000000000, 1.000000000000000000 ) ) ;
#170 = PERSON_AND_ORGANIZATION ( #134, #251 ) ;
#171 = CC_DESIGN_DATE_AND_TIME_ASSIGNMENT ( #147, #187, ( #13 ) ) ;
#172 = AXIS2_PLACEMENT_3D ( 'NONE', #6, #52, #176 ) ;
#173 = PERSON_AND_ORGANIZATION ( #134, #251 ) ;
#174 = ORIENTED_EDGE ( 'NONE', *, *, #44, .F. ) ;
#175 = DIRECTION ( 'NONE',  ( 3.491481338843133355E-15, -0.000000000000000000, 1.000000000000000000 ) ) ;
#176 = DIRECTION ( 'NONE',  ( 1.000000000000000000, 0.000000000000000000, -3.505803431989056433E-15 ) ) ;
#177 = APPROVAL_PERSON_ORGANIZATION ( #274, #271, #46 ) ;
#178 = DIRECTION ( 'NONE',  ( 1.000000000000000000, 0.000000000000000000, 0.000000000000000000 ) ) ;
#179 = CARTESIAN_POINT ( 'NONE',  ( 1.326762908760390423E-13, 0.000000000000000000, 38.00000000000000000 ) ) ;
#180 = PLANE ( 'NONE',  #36 ) ;
#181 = DIRECTION ( 'NONE',  ( 3.491481338843133355E-15, -0.000000000000000000, 1.000000000000000000 ) ) ;
#182 = CIRCLE ( 'NONE', #242, 1.199999999999993072 ) ;
#183 = DIRECTION ( 'NONE',  ( 1.000000000000000000, 0.000000000000000000, -4.625929269271497155E-15 ) ) ;
#184 = VERTEX_POINT ( 'NONE', #203 ) ;
#185 = CLOSED_SHELL ( 'NONE', ( #236, #112, #227, #66, #129, #56, #164, #216, #211, #186 ) ) ;
#186 = ADVANCED_FACE ( 'NONE', ( #115, #74 ), #238, .T. ) ;
#187 = DATE_TIME_ROLE ( 'creation_date' ) ;
#188 = ORIENTED_EDGE ( 'NONE', *, *, #253, .T. ) ;
#189 = DIRECTION ( 'NONE',  ( 0.000000000000000000, 0.000000000000000000, 1.000000000000000000 ) ) ;
#190 = EDGE_LOOP ( 'NONE', ( #62 ) ) ;
#191 = LOCAL_TIME ( 7, 46, 12.00000000000000000, #231 ) ;
#192 = CALENDAR_DATE ( 2023, 27, 9 ) ;
#193 = EDGE_LOOP ( 'NONE', ( #21 ) ) ;
#194 = DIRECTION ( 'NONE',  ( 3.491481338843133355E-15, -0.000000000000000000, 1.000000000000000000 ) ) ;
#195 = SECURITY_CLASSIFICATION_LEVEL ( 'unclassified' ) ;
#196 = AXIS2_PLACEMENT_3D ( 'NONE', #113, #135, #178 ) ;
#197 = CARTESIAN_POINT ( 'NONE',  ( 1.316288464743861212E-13, 0.000000000000000000, 37.69999999999999574 ) ) ;
#198 = DIRECTION ( 'NONE',  ( -1.000000000000000000, 0.000000000000000000, 3.505803431989056433E-15 ) ) ;
#199 = DIRECTION ( 'NONE',  ( 1.000000000000000000, 0.000000000000000000, -3.491481338843132961E-15 ) ) ;
#200 = AXIS2_PLACEMENT_3D ( 'NONE', #154, #9, #50 ) ;
#201 = DIRECTION ( 'NONE',  ( 1.000000000000000000, 0.000000000000000000, -3.659181563082931671E-15 ) ) ;
#202 = CARTESIAN_POINT ( 'NONE',  ( 2.255084616694006209E-14, 0.000000000000000000, 6.458819045102516476 ) ) ;
#203 = CARTESIAN_POINT ( 'NONE',  ( 0.4400000000000017231, 0.000000000000000000, 0.4769400459931334990 ) ) ;
#204 = VERTEX_POINT ( 'NONE', #32 ) ;
#205 = AXIS2_PLACEMENT_3D ( 'NONE', #95, #241, #91 ) ;
#206 = CIRCLE ( 'NONE', #200, 0.4399999999999999467 ) ;
#207 = ORIENTED_EDGE ( 'NONE', *, *, #103, .T. ) ;
#208 = EDGE_LOOP ( 'NONE', ( #174 ) ) ;
#209 = EDGE_LOOP ( 'NONE', ( #125 ) ) ;
#210 = AXIS2_PLACEMENT_3D ( 'NONE', #47, #71, #199 ) ;
#211 = ADVANCED_FACE ( 'NONE', ( #218, #110 ), #153, .T. ) ;
#212 = EDGE_LOOP ( 'NONE', ( #105 ) ) ;
#213 = EDGE_LOOP ( 'NONE', ( #86 ) ) ;
#214 = DATE_AND_TIME ( #87, #57 ) ;
#215 = PLANE ( 'NONE',  #247 ) ;
#216 = ADVANCED_FACE ( 'NONE', ( #25, #240 ), #114, .F. ) ;
#217 = AXIS2_PLACEMENT_3D ( 'NONE', #197, #55, #183 ) ;
#218 = FACE_OUTER_BOUND ( 'NONE', #65, .T. ) ;
#219 = CYLINDRICAL_SURFACE ( 'NONE', #196, 0.4399999999999997247 ) ;
#220 = DIRECTION ( 'NONE',  ( -3.491481338843133355E-15, 0.000000000000000000, -1.000000000000000000 ) ) ;
#221 = CC_DESIGN_APPROVAL ( #244, ( #78 ) ) ;
#222 = PRODUCT_RELATED_PRODUCT_CATEGORY ( 'detail', '', ( #137 ) ) ;
#223 = DIRECTION ( 'NONE',  ( 1.000000000000000000, 0.000000000000000000, 0.000000000000000000 ) ) ;
#224 = CARTESIAN_POINT ( 'NONE',  ( 1.200000000000125855, 0.000000000000000000, 37.99999999999999289 ) ) ;
#225 = APPROVAL_ROLE ( '' ) ;
#226 = SHAPE_DEFINITION_REPRESENTATION ( #245, #54 ) ;
#227 = ADVANCED_FACE ( 'NONE', ( #72, #265 ), #156, .T. ) ;
#228 = AXIS2_PLACEMENT_3D ( 'NONE', #254, #169, #255 ) ;
#229 = AXIS2_PLACEMENT_3D ( 'NONE', #109, #27, #111 ) ;
#230 = FACE_BOUND ( 'NONE', #89, .T. ) ;
#231 = COORDINATED_UNIVERSAL_TIME_OFFSET ( 1, 0, .AHEAD. ) ;
#232 =( NAMED_UNIT ( * ) SI_UNIT ( $, .STERADIAN. ) SOLID_ANGLE_UNIT ( ) );
#233 = FACE_OUTER_BOUND ( 'NONE', #18, .T. ) ;
#234 = CIRCLE ( 'NONE', #159, 0.4400000000000000022 ) ;
#235 = PERSON_AND_ORGANIZATION_ROLE ( 'creator' ) ;
#236 = ADVANCED_FACE ( 'NONE', ( #31 ), #180, .F. ) ;
#237 = DIRECTION ( 'NONE',  ( 1.000000000000000000, 0.000000000000000000, -3.491481338843133355E-15 ) ) ;
#238 = CYLINDRICAL_SURFACE ( 'NONE', #26, 1.499999999999998002 ) ;
#239 = CARTESIAN_POINT ( 'NONE',  ( 1.326762908760390423E-13, 1.199999999999993072, 38.00000000000000000 ) ) ;
#240 = FACE_OUTER_BOUND ( 'NONE', #212, .T. ) ;
#241 = DIRECTION ( 'NONE',  ( 3.491481338843133355E-15, -0.000000000000000000, 1.000000000000000000 ) ) ;
#242 = AXIS2_PLACEMENT_3D ( 'NONE', #167, #194, #68 ) ;
#243 = CARTESIAN_POINT ( 'NONE',  ( 0.8350000000000007416, 0.000000000000000000, 0.2488866896632301040 ) ) ;
#244 = APPROVAL ( #163, 'UNSPECIFIED' ) ;
#245 = PRODUCT_DEFINITION_SHAPE ( 'NONE', 'NONE',  #13 ) ;
#246 = DATE_AND_TIME ( #120, #270 ) ;
#247 = AXIS2_PLACEMENT_3D ( 'NONE', #239, #220, #264 ) ;
#248 = CARTESIAN_POINT ( 'NONE',  ( 0.4740741737109517850, 0.000000000000000000, 6.458819045102514700 ) ) ;
#249 = CC_DESIGN_APPROVAL ( #271, ( #20 ) ) ;
#250 =( NAMED_UNIT ( * ) PLANE_ANGLE_UNIT ( ) SI_UNIT ( $, .RADIAN. ) );
#251 = ORGANIZATION ( 'UNSPECIFIED', 'UNSPECIFIED', '' ) ;
#252 = EDGE_LOOP ( 'NONE', ( #275 ) ) ;
#253 = EDGE_CURVE ( 'NONE', #168, #168, #126, .T. ) ;
#254 = CARTESIAN_POINT ( 'NONE',  ( 8.689832324456202497E-16, 0.000000000000000000, 0.2488866896632330183 ) ) ;
#255 = DIRECTION ( 'NONE',  ( 1.000000000000000000, 0.000000000000000000, -3.505803431989056433E-15 ) ) ;
#256 = EDGE_LOOP ( 'NONE', ( #102 ) ) ;
#257 = CIRCLE ( 'NONE', #228, 0.8349999999999999645 ) ;
#258 = EDGE_CURVE ( 'NONE', #22, #22, #132, .T. ) ;
#259 = APPROVAL_DATE_TIME ( #214, #271 ) ;
#260 = DIRECTION ( 'NONE',  ( -3.491481338843133355E-15, 0.000000000000000000, -1.000000000000000000 ) ) ;
#261 = CARTESIAN_POINT ( 'NONE',  ( 1.665227270332016706E-15, 0.000000000000000000, 0.4769400459931349978 ) ) ;
#262 = FACE_OUTER_BOUND ( 'NONE', #252, .T. ) ;
#263 = AXIS2_PLACEMENT_3D ( 'NONE', #10, #175, #139 ) ;
#264 = DIRECTION ( 'NONE',  ( -1.000000000000000000, 0.000000000000000000, 3.491481338843133355E-15 ) ) ;
#265 = FACE_OUTER_BOUND ( 'NONE', #42, .T. ) ;
#266 = DATE_TIME_ROLE ( 'classification_date' ) ;
#267 = CC_DESIGN_PERSON_AND_ORGANIZATION_ASSIGNMENT ( #124, #63, ( #137 ) ) ;
#268 = CIRCLE ( 'NONE', #172, 0.8349999999999999645 ) ;
#269 = COORDINATED_UNIVERSAL_TIME_OFFSET ( 1, 0, .AHEAD. ) ;
#270 = LOCAL_TIME ( 7, 46, 12.00000000000000000, #269 ) ;
#271 = APPROVAL ( #84, 'UNSPECIFIED' ) ;
#272 = ORIENTED_EDGE ( 'NONE', *, *, #157, .T. ) ;
#273 = ORIENTED_EDGE ( 'NONE', *, *, #90, .F. ) ;
#274 = PERSON_AND_ORGANIZATION ( #134, #251 ) ;
#275 = ORIENTED_EDGE ( 'NONE', *, *, #103, .F. ) ;
ENDSEC;
END-ISO-10303-21;
