ISO-10303-21;
HEADER;
FILE_DESCRIPTION (( 'STEP AP203' ),
    '1' );
FILE_NAME ('965992.step',
    '2023-09-27T05:46:11',
    ( '' ),
    ( '' ),
    'SwSTEP 2.0',
    'SolidWorks 2022',
    '' );
FILE_SCHEMA (( 'CONFIG_CONTROL_DESIGN' ));
ENDSEC;

DATA;
#1 = APPROVAL_DATE_TIME ( #274, #37 ) ;
#2 = ORIENTED_EDGE ( 'NONE', *, *, #234, .F. ) ;
#3 = DATE_AND_TIME ( #191, #64 ) ;
#4 = ORIENTED_EDGE ( 'NONE', *, *, #90, .F. ) ;
#5 = CIRCLE ( 'NONE', #245, 0.3900000000000000133 ) ;
#6 = DIRECTION ( 'NONE',  ( 3.491481338843133355E-15, -0.000000000000000000, 1.000000000000000000 ) ) ;
#7 = CARTESIAN_POINT ( 'NONE',  ( 0.000000000000000000, 0.000000000000000000, 0.000000000000000000 ) ) ;
#8 = DIRECTION ( 'NONE',  ( 3.491481338843133355E-15, -0.000000000000000000, 1.000000000000000000 ) ) ;
#9 = CIRCLE ( 'NONE', #81, 1.499999999999996225 ) ;
#10 = FACE_OUTER_BOUND ( 'NONE', #250, .T. ) ;
#11 = CARTESIAN_POINT ( 'NONE',  ( 8.141192397167470107E-16, 0.000000000000000000, 0.2331730176127755350 ) ) ;
#12 = EDGE_CURVE ( 'NONE', #17, #17, #87, .T. ) ;
#13 = CC_DESIGN_PERSON_AND_ORGANIZATION_ASSIGNMENT ( #105, #22, ( #109 ) ) ;
#14 = DIRECTION ( 'NONE',  ( 1.000000000000000000, 0.000000000000000000, -5.782411586589390376E-15 ) ) ;
#15 = AXIS2_PLACEMENT_3D ( 'NONE', #263, #154, #239 ) ;
#16 = LOCAL_TIME ( 7, 46, 11.00000000000000000, #228 ) ;
#17 = VERTEX_POINT ( 'NONE', #202 ) ;
#18 = PRODUCT_RELATED_PRODUCT_CATEGORY ( 'detail', '', ( #109 ) ) ;
#19 = DATE_TIME_ROLE ( 'creation_date' ) ;
#20 = AXIS2_PLACEMENT_3D ( 'NONE', #133, #195, #198 ) ;
#21 = EDGE_LOOP ( 'NONE', ( #66 ) ) ;
#22 = PERSON_AND_ORGANIZATION_ROLE ( 'design_owner' ) ;
#23 = CARTESIAN_POINT ( 'NONE',  ( 7.559278840693678972E-16, 0.000000000000000000, 0.2165063509461107039 ) ) ;
#24 = PERSON ( 'UNSPECIFIED', 'UNSPECIFIED', 'UNSPECIFIED', ('UNSPECIFIED'), ('UNSPECIFIED'), ('UNSPECIFIED') ) ;
#25 = FACE_OUTER_BOUND ( 'NONE', #123, .T. ) ;
#26 = FACE_OUTER_BOUND ( 'NONE', #44, .T. ) ;
#27 = APPROVAL_PERSON_ORGANIZATION ( #102, #214, #83 ) ;
#28 = CARTESIAN_POINT ( 'NONE',  ( 8.141192397167470107E-16, 0.000000000000000000, 0.2331730176127755350 ) ) ;
#29 = CARTESIAN_POINT ( 'NONE',  ( 1.955229549752154679E-14, 0.000000000000000000, 5.599999999999999645 ) ) ;
#30 = DIRECTION ( 'NONE',  ( 3.491481338843133355E-15, -0.000000000000000000, 1.000000000000000000 ) ) ;
#31 = CARTESIAN_POINT ( 'NONE',  ( 1.326762908760390423E-13, 0.000000000000000000, 38.00000000000000000 ) ) ;
#32 = CARTESIAN_POINT ( 'NONE',  ( 1.500000000000034417, 0.000000000000000000, 9.874228893988952649 ) ) ;
#33 = SHAPE_DEFINITION_REPRESENTATION ( #58, #77 ) ;
#34 = CONICAL_SURFACE ( 'NONE', #148, 1.499999999999996225, 0.7853981633974504994 ) ;
#35 = TOROIDAL_SURFACE ( 'NONE', #269, 1.389999999999999236, 1.000000000000000000 ) ;
#36 = MECHANICAL_CONTEXT ( 'NONE', #270, 'mechanical' ) ;
#37 = APPROVAL ( #226, 'UNSPECIFIED' ) ;
#38 = EDGE_LOOP ( 'NONE', ( #205 ) ) ;
#39 = COORDINATED_UNIVERSAL_TIME_OFFSET ( 1, 0, .AHEAD. ) ;
#40 = ORIENTED_EDGE ( 'NONE', *, *, #204, .T. ) ;
#41 = AXIS2_PLACEMENT_3D ( 'NONE', #11, #8, #55 ) ;
#42 = CALENDAR_DATE ( 2023, 27, 9 ) ;
#43 = CC_DESIGN_SECURITY_CLASSIFICATION ( #178, ( #268 ) ) ;
#44 = EDGE_LOOP ( 'NONE', ( #85 ) ) ;
#45 = EDGE_CURVE ( 'NONE', #78, #78, #201, .T. ) ;
#46 =( LENGTH_UNIT ( ) NAMED_UNIT ( * ) SI_UNIT ( .MILLI., .METRE. ) );
#47 = ORIENTED_EDGE ( 'NONE', *, *, #257, .F. ) ;
#48 = PERSON_AND_ORGANIZATION_ROLE ( 'design_supplier' ) ;
#49 = CARTESIAN_POINT ( 'NONE',  ( 3.447568591882812096E-14, 0.000000000000000000, 9.874228893988957978 ) ) ;
#50 = PLANE ( 'NONE',  #104 ) ;
#51 = CIRCLE ( 'NONE', #272, 0.4240741737109290921 ) ;
#52 = EDGE_CURVE ( 'NONE', #98, #98, #51, .T. ) ;
#53 = APPROVAL_PERSON_ORGANIZATION ( #169, #82, #266 ) ;
#54 = DIRECTION ( 'NONE',  ( -3.491481338843133355E-15, 0.000000000000000000, -1.000000000000000000 ) ) ;
#55 = DIRECTION ( 'NONE',  ( 1.000000000000000000, 0.000000000000000000, -3.507712910982514253E-15 ) ) ;
#56 = FACE_OUTER_BOUND ( 'NONE', #225, .T. ) ;
#57 = AXIS2_PLACEMENT_3D ( 'NONE', #261, #6, #75 ) ;
#58 = PRODUCT_DEFINITION_SHAPE ( 'NONE', 'NONE',  #142 ) ;
#59 = CARTESIAN_POINT ( 'NONE',  ( 0.7650000000000007905, 0.000000000000000000, 0.2165063509461080116 ) ) ;
#60 = CC_DESIGN_PERSON_AND_ORGANIZATION_ASSIGNMENT ( #233, #48, ( #268 ) ) ;
#61 = LOCAL_TIME ( 7, 46, 11.00000000000000000, #161 ) ;
#62 = VERTEX_POINT ( 'NONE', #181 ) ;
#63 = APPROVAL_DATE_TIME ( #120, #82 ) ;
#64 = LOCAL_TIME ( 7, 46, 11.00000000000000000, #212 ) ;
#65 = ORIENTED_EDGE ( 'NONE', *, *, #271, .F. ) ;
#66 = ORIENTED_EDGE ( 'NONE', *, *, #52, .F. ) ;
#67 = CARTESIAN_POINT ( 'NONE',  ( 1.955229549752154995E-14, 0.000000000000000000, 5.600000000000000533 ) ) ;
#68 = ADVANCED_FACE ( 'NONE', ( #149, #25 ), #211, .T. ) ;
#69 = DIRECTION ( 'NONE',  ( 1.000000000000000000, 0.000000000000000000, -4.090613349067761072E-15 ) ) ;
#70 = SECURITY_CLASSIFICATION_LEVEL ( 'unclassified' ) ;
#71 = CARTESIAN_POINT ( 'NONE',  ( 1.316288464743861212E-13, 0.000000000000000000, 37.69999999999999574 ) ) ;
#72 = ADVANCED_FACE ( 'NONE', ( #170, #240 ), #34, .T. ) ;
#73 = CARTESIAN_POINT ( 'NONE',  ( 1.326762908760390423E-13, 0.000000000000000000, 38.00000000000000000 ) ) ;
#74 = DIRECTION ( 'NONE',  ( 3.491481338843133355E-15, -0.000000000000000000, 1.000000000000000000 ) ) ;
#75 = DIRECTION ( 'NONE',  ( 1.000000000000000000, 0.000000000000000000, -3.491481338843133355E-15 ) ) ;
#76 = FACE_OUTER_BOUND ( 'NONE', #101, .T. ) ;
#77 = ADVANCED_BREP_SHAPE_REPRESENTATION ( '965992', ( #237, #158 ), #141 ) ;
#78 = VERTEX_POINT ( 'NONE', #59 ) ;
#79 = LOCAL_TIME ( 7, 46, 11.00000000000000000, #39 ) ;
#80 = CC_DESIGN_PERSON_AND_ORGANIZATION_ASSIGNMENT ( #150, #130, ( #268 ) ) ;
#81 = AXIS2_PLACEMENT_3D ( 'NONE', #94, #136, #235 ) ;
#82 = APPROVAL ( #223, 'UNSPECIFIED' ) ;
#83 = APPROVAL_ROLE ( '' ) ;
#84 = ADVANCED_FACE ( 'NONE', ( #175 ), #155, .F. ) ;
#85 = ORIENTED_EDGE ( 'NONE', *, *, #179, .T. ) ;
#86 = ORIENTED_EDGE ( 'NONE', *, *, #52, .T. ) ;
#87 = CIRCLE ( 'NONE', #224, 0.3899999999999992917 ) ;
#88 = DATE_TIME_ROLE ( 'classification_date' ) ;
#89 = DIRECTION ( 'NONE',  ( 1.000000000000000000, 0.000000000000000000, 0.000000000000000000 ) ) ;
#90 = EDGE_CURVE ( 'NONE', #177, #177, #5, .T. ) ;
#91 = CYLINDRICAL_SURFACE ( 'NONE', #187, 1.499999999999998002 ) ;
#92 = FACE_BOUND ( 'NONE', #192, .T. ) ;
#93 = CIRCLE ( 'NONE', #196, 0.3899999999999999023 ) ;
#94 = CARTESIAN_POINT ( 'NONE',  ( 1.316288464743861212E-13, 0.000000000000000000, 37.69999999999999574 ) ) ;
#95 = CONICAL_SURFACE ( 'NONE', #208, 0.7650000000000000133, 1.047197551196595633 ) ;
#96 = DIRECTION ( 'NONE',  ( -1.000000000000000000, 0.000000000000000000, 4.625929269271497155E-15 ) ) ;
#97 = CARTESIAN_POINT ( 'NONE',  ( 1.326762908760390423E-13, 0.000000000000000000, 38.00000000000000000 ) ) ;
#98 = VERTEX_POINT ( 'NONE', #156 ) ;
#99 = ORGANIZATION ( 'UNSPECIFIED', 'UNSPECIFIED', '' ) ;
#100 = APPLICATION_PROTOCOL_DEFINITION ( 'international standard', 'config_control_design', 1994, #200 ) ;
#101 = EDGE_LOOP ( 'NONE', ( #145 ) ) ;
#102 = PERSON_AND_ORGANIZATION ( #24, #99 ) ;
#103 = ORIENTED_EDGE ( 'NONE', *, *, #12, .F. ) ;
#104 = AXIS2_PLACEMENT_3D ( 'NONE', #132, #218, #217 ) ;
#105 = PERSON_AND_ORGANIZATION ( #24, #99 ) ;
#106 = DIRECTION ( 'NONE',  ( 1.000000000000000000, 0.000000000000000000, -3.507712910982514253E-15 ) ) ;
#107 = PERSON_AND_ORGANIZATION_ROLE ( 'classification_officer' ) ;
#108 = DIRECTION ( 'NONE',  ( 3.491481338843133355E-15, -0.000000000000000000, 1.000000000000000000 ) ) ;
#109 = PRODUCT ( '965992', '965992', '', ( #36 ) ) ;
#110 = APPROVAL_PERSON_ORGANIZATION ( #251, #37, #126 ) ;
#111 = FACE_OUTER_BOUND ( 'NONE', #186, .T. ) ;
#112 = FACE_OUTER_BOUND ( 'NONE', #38, .T. ) ;
#113 = FACE_OUTER_BOUND ( 'NONE', #21, .T. ) ;
#114 = ADVANCED_FACE ( 'NONE', ( #113, #112 ), #35, .F. ) ;
#115 = DIRECTION ( 'NONE',  ( 1.000000000000000000, 0.000000000000000000, -3.491481338843132961E-15 ) ) ;
#116 = DIRECTION ( 'NONE',  ( 3.491481338843133355E-15, -0.000000000000000000, 1.000000000000000000 ) ) ;
#117 = VERTEX_POINT ( 'NONE', #199 ) ;
#118 = ADVANCED_FACE ( 'NONE', ( #193, #76 ), #91, .T. ) ;
#119 = AXIS2_PLACEMENT_3D ( 'NONE', #232, #108, #89 ) ;
#120 = DATE_AND_TIME ( #244, #61 ) ;
#121 = AXIS2_PLACEMENT_3D ( 'NONE', #97, #172, #14 ) ;
#122 = DATE_AND_TIME ( #249, #246 ) ;
#123 = EDGE_LOOP ( 'NONE', ( #254 ) ) ;
#124 = PERSON_AND_ORGANIZATION_ROLE ( 'creator' ) ;
#125 = EDGE_LOOP ( 'NONE', ( #47 ) ) ;
#126 = APPROVAL_ROLE ( '' ) ;
#127 = DIRECTION ( 'NONE',  ( 3.491481338843133355E-15, -0.000000000000000000, 1.000000000000000000 ) ) ;
#128 =( NAMED_UNIT ( * ) PLANE_ANGLE_UNIT ( ) SI_UNIT ( $, .RADIAN. ) );
#129 = ORIENTED_EDGE ( 'NONE', *, *, #179, .F. ) ;
#130 = PERSON_AND_ORGANIZATION_ROLE ( 'creator' ) ;
#131 = DIRECTION ( 'NONE',  ( 3.491481338843133355E-15, -0.000000000000000000, 1.000000000000000000 ) ) ;
#132 = CARTESIAN_POINT ( 'NONE',  ( 1.326762908760390423E-13, 1.199999999999993072, 38.00000000000000000 ) ) ;
#133 = CARTESIAN_POINT ( 'NONE',  ( 0.000000000000000000, 0.000000000000000000, 0.000000000000000000 ) ) ;
#134 = DIRECTION ( 'NONE',  ( 1.000000000000000000, 0.000000000000000000, -3.469446951953614189E-15 ) ) ;
#135 = CONICAL_SURFACE ( 'NONE', #15, 0.4240741737109290921, 0.2617993877991428575 ) ;
#136 = DIRECTION ( 'NONE',  ( 3.491481338843133355E-15, -0.000000000000000000, 1.000000000000000000 ) ) ;
#137 = ADVANCED_FACE ( 'NONE', ( #10, #176 ), #262, .T. ) ;
#138 = DESIGN_CONTEXT ( 'detailed design', #200, 'design' ) ;
#139 = EDGE_LOOP ( 'NONE', ( #129 ) ) ;
#140 = CIRCLE ( 'NONE', #168, 1.500000000000000000 ) ;
#141 =( GEOMETRIC_REPRESENTATION_CONTEXT ( 3 ) GLOBAL_UNCERTAINTY_ASSIGNED_CONTEXT ( ( #260 ) ) GLOBAL_UNIT_ASSIGNED_CONTEXT ( ( #46, #128, #144 ) ) REPRESENTATION_CONTEXT ( 'NONE', 'WORKASPACE' ) );
#142 = PRODUCT_DEFINITION ( 'UNKNOWN', '', #268, #138 ) ;
#143 = ORIENTED_EDGE ( 'NONE', *, *, #234, .T. ) ;
#144 =( NAMED_UNIT ( * ) SI_UNIT ( $, .STERADIAN. ) SOLID_ANGLE_UNIT ( ) );
#145 = ORIENTED_EDGE ( 'NONE', *, *, #257, .T. ) ;
#146 = APPROVAL_STATUS ( 'not_yet_approved' ) ;
#147 = ORIENTED_EDGE ( 'NONE', *, *, #90, .T. ) ;
#148 = AXIS2_PLACEMENT_3D ( 'NONE', #71, #54, #96 ) ;
#149 = FACE_OUTER_BOUND ( 'NONE', #139, .T. ) ;
#150 = PERSON_AND_ORGANIZATION ( #24, #99 ) ;
#151 = FACE_BOUND ( 'NONE', #206, .T. ) ;
#152 = DIRECTION ( 'NONE',  ( 1.000000000000000000, 0.000000000000000000, -4.625929269271491633E-15 ) ) ;
#153 = DIRECTION ( 'NONE',  ( 3.491481338843133355E-15, -0.000000000000000000, 1.000000000000000000 ) ) ;
#154 = DIRECTION ( 'NONE',  ( 3.491481338843133355E-15, -0.000000000000000000, 1.000000000000000000 ) ) ;
#155 = PLANE ( 'NONE',  #57 ) ;
#156 = CARTESIAN_POINT ( 'NONE',  ( 0.4240741737109495202, 0.000000000000000000, 5.858819045102511502 ) ) ;
#157 = VERTEX_POINT ( 'NONE', #247 ) ;
#158 = AXIS2_PLACEMENT_3D ( 'NONE', #207, #189, #248 ) ;
#159 = ADVANCED_FACE ( 'NONE', ( #56 ), #50, .F. ) ;
#160 = VERTEX_POINT ( 'NONE', #242 ) ;
#161 = COORDINATED_UNIVERSAL_TIME_OFFSET ( 1, 0, .AHEAD. ) ;
#162 = CC_DESIGN_PERSON_AND_ORGANIZATION_ASSIGNMENT ( #258, #107, ( #178 ) ) ;
#163 = COORDINATED_UNIVERSAL_TIME_OFFSET ( 1, 0, .AHEAD. ) ;
#164 = EDGE_LOOP ( 'NONE', ( #103 ) ) ;
#165 = CALENDAR_DATE ( 2023, 27, 9 ) ;
#166 = DATE_AND_TIME ( #42, #16 ) ;
#167 = CARTESIAN_POINT ( 'NONE',  ( 2.045595736363416946E-14, 0.000000000000000000, 5.858819045102513279 ) ) ;
#168 = AXIS2_PLACEMENT_3D ( 'NONE', #49, #131, #134 ) ;
#169 = PERSON_AND_ORGANIZATION ( #24, #99 ) ;
#170 = FACE_BOUND ( 'NONE', #275, .T. ) ;
#171 = CARTESIAN_POINT ( 'NONE',  ( 1.570047123786114908E-15, 0.000000000000000000, 0.4496793685588862388 ) ) ;
#172 = DIRECTION ( 'NONE',  ( 3.491481338843133355E-15, -0.000000000000000000, 1.000000000000000000 ) ) ;
#173 = CC_DESIGN_APPROVAL ( #37, ( #142 ) ) ;
#174 = FACE_OUTER_BOUND ( 'NONE', #125, .T. ) ;
#175 = FACE_OUTER_BOUND ( 'NONE', #229, .T. ) ;
#176 = FACE_BOUND ( 'NONE', #184, .T. ) ;
#177 = VERTEX_POINT ( 'NONE', #180 ) ;
#178 = SECURITY_CLASSIFICATION ( '', '', #70 ) ;
#179 = EDGE_CURVE ( 'NONE', #157, #157, #256, .T. ) ;
#180 = CARTESIAN_POINT ( 'NONE',  ( 0.3900000000000015676, 0.000000000000000000, 0.4496793685588849065 ) ) ;
#181 = CARTESIAN_POINT ( 'NONE',  ( 0.3899999999999999023, 0.000000000000000000, -1.361677722148821496E-15 ) ) ;
#182 = ADVANCED_FACE ( 'NONE', ( #151, #26 ), #95, .T. ) ;
#183 = PERSON_AND_ORGANIZATION ( #24, #99 ) ;
#184 = EDGE_LOOP ( 'NONE', ( #40 ) ) ;
#185 = APPLICATION_PROTOCOL_DEFINITION ( 'international standard', 'config_control_design', 1994, #270 ) ;
#186 = EDGE_LOOP ( 'NONE', ( #147 ) ) ;
#187 = AXIS2_PLACEMENT_3D ( 'NONE', #73, #153, #152 ) ;
#188 = EDGE_LOOP ( 'NONE', ( #2 ) ) ;
#189 = DIRECTION ( 'NONE',  ( 0.000000000000000000, 0.000000000000000000, 1.000000000000000000 ) ) ;
#190 = DIRECTION ( 'NONE',  ( 3.491481338843133355E-15, -0.000000000000000000, 1.000000000000000000 ) ) ;
#191 = CALENDAR_DATE ( 2023, 27, 9 ) ;
#192 = EDGE_LOOP ( 'NONE', ( #86 ) ) ;
#193 = FACE_OUTER_BOUND ( 'NONE', #188, .T. ) ;
#194 = DIRECTION ( 'NONE',  ( -1.000000000000000000, 0.000000000000000000, 3.507712910982514253E-15 ) ) ;
#195 = DIRECTION ( 'NONE',  ( 3.491481338843133355E-15, -0.000000000000000000, 1.000000000000000000 ) ) ;
#196 = AXIS2_PLACEMENT_3D ( 'NONE', #7, #74, #115 ) ;
#197 = DIRECTION ( 'NONE',  ( 1.000000000000000000, 0.000000000000000000, 0.000000000000000000 ) ) ;
#198 = DIRECTION ( 'NONE',  ( 1.000000000000000000, 0.000000000000000000, -3.491481338843132961E-15 ) ) ;
#199 = CARTESIAN_POINT ( 'NONE',  ( 1.200000000000125855, 0.000000000000000000, 37.99999999999999289 ) ) ;
#200 = APPLICATION_CONTEXT ( 'configuration controlled 3d designs of mechanical parts and assemblies' ) ;
#201 = CIRCLE ( 'NONE', #230, 0.7650000000000000133 ) ;
#202 = CARTESIAN_POINT ( 'NONE',  ( 0.3900000000000188316, 0.000000000000000000, 5.599999999999998757 ) ) ;
#203 = CLOSED_SHELL ( 'NONE', ( #84, #137, #68, #182, #264, #72, #159, #114, #252, #118 ) ) ;
#204 = EDGE_CURVE ( 'NONE', #62, #62, #93, .T. ) ;
#205 = ORIENTED_EDGE ( 'NONE', *, *, #12, .T. ) ;
#206 = EDGE_LOOP ( 'NONE', ( #4 ) ) ;
#207 = CARTESIAN_POINT ( 'NONE',  ( 0.000000000000000000, 0.000000000000000000, 0.000000000000000000 ) ) ;
#208 = AXIS2_PLACEMENT_3D ( 'NONE', #28, #213, #194 ) ;
#209 = APPROVAL_DATE_TIME ( #166, #214 ) ;
#210 = DIRECTION ( 'NONE',  ( 1.000000000000000000, 0.000000000000000000, -4.448008912761052287E-15 ) ) ;
#211 = CYLINDRICAL_SURFACE ( 'NONE', #119, 0.7650000000000000133 ) ;
#212 = COORDINATED_UNIVERSAL_TIME_OFFSET ( 1, 0, .AHEAD. ) ;
#213 = DIRECTION ( 'NONE',  ( -3.491481338843133355E-15, 0.000000000000000000, -1.000000000000000000 ) ) ;
#214 = APPROVAL ( #146, 'UNSPECIFIED' ) ;
#215 = AXIS2_PLACEMENT_3D ( 'NONE', #31, #30, #197 ) ;
#216 = CC_DESIGN_APPROVAL ( #82, ( #178 ) ) ;
#217 = DIRECTION ( 'NONE',  ( -1.000000000000000000, 0.000000000000000000, 3.491481338843133355E-15 ) ) ;
#218 = DIRECTION ( 'NONE',  ( -3.491481338843133355E-15, 0.000000000000000000, -1.000000000000000000 ) ) ;
#219 = CYLINDRICAL_SURFACE ( 'NONE', #215, 0.3899999999999996247 ) ;
#220 = CC_DESIGN_PERSON_AND_ORGANIZATION_ASSIGNMENT ( #183, #124, ( #142 ) ) ;
#221 = FACE_OUTER_BOUND ( 'NONE', #164, .T. ) ;
#222 = VERTEX_POINT ( 'NONE', #32 ) ;
#223 = APPROVAL_STATUS ( 'not_yet_approved' ) ;
#224 = AXIS2_PLACEMENT_3D ( 'NONE', #67, #127, #210 ) ;
#225 = EDGE_LOOP ( 'NONE', ( #253 ) ) ;
#226 = APPROVAL_STATUS ( 'not_yet_approved' ) ;
#227 = ORIENTED_EDGE ( 'NONE', *, *, #204, .F. ) ;
#228 = COORDINATED_UNIVERSAL_TIME_OFFSET ( 1, 0, .AHEAD. ) ;
#229 = EDGE_LOOP ( 'NONE', ( #227 ) ) ;
#230 = AXIS2_PLACEMENT_3D ( 'NONE', #23, #190, #106 ) ;
#231 = CC_DESIGN_APPROVAL ( #214, ( #268 ) ) ;
#232 = CARTESIAN_POINT ( 'NONE',  ( 1.326762908760390423E-13, 0.000000000000000000, 38.00000000000000000 ) ) ;
#233 = PERSON_AND_ORGANIZATION ( #24, #99 ) ;
#234 = EDGE_CURVE ( 'NONE', #160, #160, #9, .T. ) ;
#235 = DIRECTION ( 'NONE',  ( 1.000000000000000000, 0.000000000000000000, -4.625929269271497155E-15 ) ) ;
#236 = DIRECTION ( 'NONE',  ( 1.000000000000000000, 0.000000000000000000, -3.491481338843133355E-15 ) ) ;
#237 = MANIFOLD_SOLID_BREP ( 'Corps-Déplacer/Copier1', #203 ) ;
#238 = DIRECTION ( 'NONE',  ( 3.491481338843133355E-15, -0.000000000000000000, 1.000000000000000000 ) ) ;
#239 = DIRECTION ( 'NONE',  ( 1.000000000000000000, 0.000000000000000000, -4.090613349067761072E-15 ) ) ;
#240 = FACE_OUTER_BOUND ( 'NONE', #273, .T. ) ;
#241 = CIRCLE ( 'NONE', #121, 1.199999999999993072 ) ;
#242 = CARTESIAN_POINT ( 'NONE',  ( 1.500000000000127676, 0.000000000000000000, 37.69999999999998863 ) ) ;
#243 = CC_DESIGN_DATE_AND_TIME_ASSIGNMENT ( #3, #88, ( #178 ) ) ;
#244 = CALENDAR_DATE ( 2023, 27, 9 ) ;
#245 = AXIS2_PLACEMENT_3D ( 'NONE', #171, #238, #265 ) ;
#246 = LOCAL_TIME ( 7, 46, 11.00000000000000000, #163 ) ;
#247 = CARTESIAN_POINT ( 'NONE',  ( 0.7650000000000009015, 0.000000000000000000, 0.2331730176127728427 ) ) ;
#248 = DIRECTION ( 'NONE',  ( 1.000000000000000000, 0.000000000000000000, 0.000000000000000000 ) ) ;
#249 = CALENDAR_DATE ( 2023, 27, 9 ) ;
#250 = EDGE_LOOP ( 'NONE', ( #259 ) ) ;
#251 = PERSON_AND_ORGANIZATION ( #24, #99 ) ;
#252 = ADVANCED_FACE ( 'NONE', ( #174, #92 ), #135, .T. ) ;
#253 = ORIENTED_EDGE ( 'NONE', *, *, #271, .T. ) ;
#254 = ORIENTED_EDGE ( 'NONE', *, *, #45, .T. ) ;
#255 = DIRECTION ( 'NONE',  ( 3.491481338843133355E-15, -0.000000000000000000, 1.000000000000000000 ) ) ;
#256 = CIRCLE ( 'NONE', #41, 0.7650000000000000133 ) ;
#257 = EDGE_CURVE ( 'NONE', #222, #222, #140, .T. ) ;
#258 = PERSON_AND_ORGANIZATION ( #24, #99 ) ;
#259 = ORIENTED_EDGE ( 'NONE', *, *, #45, .F. ) ;
#260 = UNCERTAINTY_MEASURE_WITH_UNIT (LENGTH_MEASURE( 1.000000000000000082E-05 ), #46, 'distance_accuracy_value', 'NONE');
#261 = CARTESIAN_POINT ( 'NONE',  ( 0.000000000000000000, 0.000000000000000000, 0.000000000000000000 ) ) ;
#262 = CONICAL_SURFACE ( 'NONE', #20, 0.3899999999999999023, 1.047197551196595855 ) ;
#263 = CARTESIAN_POINT ( 'NONE',  ( 2.045595736363416946E-14, 0.000000000000000000, 5.858819045102513279 ) ) ;
#264 = ADVANCED_FACE ( 'NONE', ( #221, #111 ), #219, .T. ) ;
#265 = DIRECTION ( 'NONE',  ( 1.000000000000000000, 0.000000000000000000, -3.475006963094565443E-15 ) ) ;
#266 = APPROVAL_ROLE ( '' ) ;
#267 = CC_DESIGN_DATE_AND_TIME_ASSIGNMENT ( #122, #19, ( #142 ) ) ;
#268 = PRODUCT_DEFINITION_FORMATION_WITH_SPECIFIED_SOURCE ( 'ANY', '', #109, .NOT_KNOWN. ) ;
#269 = AXIS2_PLACEMENT_3D ( 'NONE', #29, #116, #236 ) ;
#270 = APPLICATION_CONTEXT ( 'configuration controlled 3d designs of mechanical parts and assemblies' ) ;
#271 = EDGE_CURVE ( 'NONE', #117, #117, #241, .T. ) ;
#272 = AXIS2_PLACEMENT_3D ( 'NONE', #167, #255, #69 ) ;
#273 = EDGE_LOOP ( 'NONE', ( #143 ) ) ;
#274 = DATE_AND_TIME ( #165, #79 ) ;
#275 = EDGE_LOOP ( 'NONE', ( #65 ) ) ;
ENDSEC;
END-ISO-10303-21;
