ISO-10303-21;
HEADER;
FILE_DESCRIPTION (( 'STEP AP203' ),
    '1' );
FILE_NAME ('965991.step',
    '2023-09-27T05:46:10',
    ( '' ),
    ( '' ),
    'SwSTEP 2.0',
    'SolidWorks 2022',
    '' );
FILE_SCHEMA (( 'CONFIG_CONTROL_DESIGN' ));
ENDSEC;

DATA;
#1 = VERTEX_POINT ( 'NONE', #87 ) ;
#2 = FACE_OUTER_BOUND ( 'NONE', #97, .T. ) ;
#3 = ORIENTED_EDGE ( 'NONE', *, *, #258, .F. ) ;
#4 = CIRCLE ( 'NONE', #94, 1.499999999999996225 ) ;
#5 = LOCAL_TIME ( 7, 46, 10.00000000000000000, #176 ) ;
#6 = DATE_AND_TIME ( #255, #95 ) ;
#7 = EDGE_LOOP ( 'NONE', ( #92 ) ) ;
#8 = DATE_AND_TIME ( #173, #5 ) ;
#9 = CONICAL_SURFACE ( 'NONE', #126, 0.6949999999999999512, 1.047197551196598297 ) ;
#10 = EDGE_LOOP ( 'NONE', ( #257 ) ) ;
#11 = CARTESIAN_POINT ( 'NONE',  ( 7.435659705369351252E-16, 0.000000000000000000, 0.2129657581911373332 ) ) ;
#12 = DIRECTION ( 'NONE',  ( 1.000000000000000000, 0.000000000000000000, -4.458593227690453455E-15 ) ) ;
#13 = ADVANCED_FACE ( 'NONE', ( #218, #217 ), #267, .F. ) ;
#14 = CARTESIAN_POINT ( 'NONE',  ( 1.316288464743861212E-13, 0.000000000000000000, 37.69999999999999574 ) ) ;
#15 = CONICAL_SURFACE ( 'NONE', #268, 0.3890741737109290055, 0.2617993877991428020 ) ;
#16 = CARTESIAN_POINT ( 'NONE',  ( 1.428940585426491334E-15, 0.000000000000000000, 0.4092648497156098353 ) ) ;
#17 = DIRECTION ( 'NONE',  ( 1.000000000000000000, 0.000000000000000000, -3.491481338843133355E-15 ) ) ;
#18 = EDGE_CURVE ( 'NONE', #224, #224, #182, .T. ) ;
#19 = FACE_OUTER_BOUND ( 'NONE', #26, .T. ) ;
#20 = AXIS2_PLACEMENT_3D ( 'NONE', #117, #101, #60 ) ;
#21 = VERTEX_POINT ( 'NONE', #272 ) ;
#22 = CARTESIAN_POINT ( 'NONE',  ( 1.326762908760390423E-13, 0.000000000000000000, 38.00000000000000000 ) ) ;
#23 = DIRECTION ( 'NONE',  ( 3.491481338843133355E-15, -0.000000000000000000, 1.000000000000000000 ) ) ;
#24 = APPROVAL_STATUS ( 'not_yet_approved' ) ;
#25 = PRODUCT_DEFINITION ( 'UNKNOWN', '', #226, #109 ) ;
#26 = EDGE_LOOP ( 'NONE', ( #51 ) ) ;
#27 = APPROVAL_ROLE ( '' ) ;
#28 = EDGE_LOOP ( 'NONE', ( #259 ) ) ;
#29 = PERSON_AND_ORGANIZATION_ROLE ( 'creator' ) ;
#30 = EDGE_CURVE ( 'NONE', #45, #45, #65, .T. ) ;
#31 = COORDINATED_UNIVERSAL_TIME_OFFSET ( 1, 0, .AHEAD. ) ;
#32 = EDGE_LOOP ( 'NONE', ( #128 ) ) ;
#33 = FACE_OUTER_BOUND ( 'NONE', #10, .T. ) ;
#34 = CIRCLE ( 'NONE', #69, 0.3549999999999994271 ) ;
#35 = FACE_OUTER_BOUND ( 'NONE', #32, .T. ) ;
#36 = ADVANCED_FACE ( 'NONE', ( #33, #98 ), #164, .T. ) ;
#37 = EDGE_LOOP ( 'NONE', ( #174 ) ) ;
#38 = CC_DESIGN_APPROVAL ( #155, ( #226 ) ) ;
#39 = EDGE_CURVE ( 'NONE', #248, #248, #240, .T. ) ;
#40 = CARTESIAN_POINT ( 'NONE',  ( 1.326762908760390423E-13, 0.000000000000000000, 38.00000000000000000 ) ) ;
#41 = CARTESIAN_POINT ( 'NONE',  ( 1.326762908760390423E-13, 1.199999999999993072, 38.00000000000000000 ) ) ;
#42 = CC_DESIGN_APPROVAL ( #111, ( #25 ) ) ;
#43 = DIRECTION ( 'NONE',  ( -3.491481338843133355E-15, 0.000000000000000000, -1.000000000000000000 ) ) ;
#44 = CC_DESIGN_PERSON_AND_ORGANIZATION_ASSIGNMENT ( #112, #132, ( #226 ) ) ;
#45 = VERTEX_POINT ( 'NONE', #64 ) ;
#46 = AXIS2_PLACEMENT_3D ( 'NONE', #41, #165, #145 ) ;
#47 = ADVANCED_FACE ( 'NONE', ( #58, #204 ), #241, .T. ) ;
#48 = APPROVAL_DATE_TIME ( #261, #203 ) ;
#49 = ORIENTED_EDGE ( 'NONE', *, *, #113, .T. ) ;
#50 = EDGE_LOOP ( 'NONE', ( #71 ) ) ;
#51 = ORIENTED_EDGE ( 'NONE', *, *, #123, .F. ) ;
#52 = SHAPE_DEFINITION_REPRESENTATION ( #55, #195 ) ;
#53 = PERSON_AND_ORGANIZATION ( #208, #169 ) ;
#54 = EDGE_LOOP ( 'NONE', ( #256 ) ) ;
#55 = PRODUCT_DEFINITION_SHAPE ( 'NONE', 'NONE',  #25 ) ;
#56 = CARTESIAN_POINT ( 'NONE',  ( 7.435659705369351252E-16, 0.000000000000000000, 0.2129657581911373332 ) ) ;
#57 = DIRECTION ( 'NONE',  ( 1.000000000000000000, 0.000000000000000000, -3.491481338843133355E-15 ) ) ;
#58 = FACE_OUTER_BOUND ( 'NONE', #233, .T. ) ;
#59 = DIRECTION ( 'NONE',  ( 3.491481338843133355E-15, -0.000000000000000000, 1.000000000000000000 ) ) ;
#60 = DIRECTION ( 'NONE',  ( 1.000000000000000000, 0.000000000000000000, -4.625929269271491633E-15 ) ) ;
#61 = AXIS2_PLACEMENT_3D ( 'NONE', #22, #190, #124 ) ;
#62 = APPLICATION_PROTOCOL_DEFINITION ( 'international standard', 'config_control_design', 1994, #253 ) ;
#63 = DIRECTION ( 'NONE',  ( 1.000000000000000000, 0.000000000000000000, -4.458593227690453455E-15 ) ) ;
#64 = CARTESIAN_POINT ( 'NONE',  ( 0.6950000000000007283, 0.000000000000000000, 0.2129657581911348907 ) ) ;
#65 = CIRCLE ( 'NONE', #89, 0.6949999999999999512 ) ;
#66 = ADVANCED_FACE ( 'NONE', ( #183 ), #118, .F. ) ;
#67 = PERSON_AND_ORGANIZATION ( #208, #169 ) ;
#68 = ORIENTED_EDGE ( 'NONE', *, *, #113, .F. ) ;
#69 = AXIS2_PLACEMENT_3D ( 'NONE', #201, #181, #184 ) ;
#70 = APPROVAL_DATE_TIME ( #8, #111 ) ;
#71 = ORIENTED_EDGE ( 'NONE', *, *, #78, .T. ) ;
#72 = APPROVAL_STATUS ( 'not_yet_approved' ) ;
#73 = ORIENTED_EDGE ( 'NONE', *, *, #258, .T. ) ;
#74 = PERSON_AND_ORGANIZATION ( #208, #169 ) ;
#75 = CC_DESIGN_APPROVAL ( #203, ( #250 ) ) ;
#76 = DIRECTION ( 'NONE',  ( 1.000000000000000000, 0.000000000000000000, 0.000000000000000000 ) ) ;
#77 = ORIENTED_EDGE ( 'NONE', *, *, #30, .F. ) ;
#78 = EDGE_CURVE ( 'NONE', #1, #1, #4, .T. ) ;
#79 = ORIENTED_EDGE ( 'NONE', *, *, #18, .T. ) ;
#80 = DIRECTION ( 'NONE',  ( 3.491481338843133355E-15, -0.000000000000000000, 1.000000000000000000 ) ) ;
#81 = DIRECTION ( 'NONE',  ( 3.491481338843133355E-15, -0.000000000000000000, 1.000000000000000000 ) ) ;
#82 = DIRECTION ( 'NONE',  ( 1.000000000000000000, 0.000000000000000000, -3.510007033226453485E-15 ) ) ;
#83 = AXIS2_PLACEMENT_3D ( 'NONE', #159, #242, #161 ) ;
#84 = AXIS2_PLACEMENT_3D ( 'NONE', #102, #188, #76 ) ;
#85 = DIRECTION ( 'NONE',  ( 1.000000000000000000, 0.000000000000000000, -3.510007033226453485E-15 ) ) ;
#86 = FACE_OUTER_BOUND ( 'NONE', #54, .T. ) ;
#87 = CARTESIAN_POINT ( 'NONE',  ( 1.500000000000127676, 0.000000000000000000, 37.69999999999998863 ) ) ;
#88 = ADVANCED_FACE ( 'NONE', ( #162, #142 ), #9, .T. ) ;
#89 = AXIS2_PLACEMENT_3D ( 'NONE', #56, #80, #82 ) ;
#90 = AXIS2_PLACEMENT_3D ( 'NONE', #228, #254, #249 ) ;
#91 = SECURITY_CLASSIFICATION_LEVEL ( 'unclassified' ) ;
#92 = ORIENTED_EDGE ( 'NONE', *, *, #18, .F. ) ;
#93 = PERSON_AND_ORGANIZATION ( #208, #169 ) ;
#94 = AXIS2_PLACEMENT_3D ( 'NONE', #14, #199, #114 ) ;
#95 = LOCAL_TIME ( 7, 46, 10.00000000000000000, #31 ) ;
#96 = EDGE_CURVE ( 'NONE', #121, #121, #244, .T. ) ;
#97 = EDGE_LOOP ( 'NONE', ( #235 ) ) ;
#98 = FACE_BOUND ( 'NONE', #216, .T. ) ;
#99 = APPROVAL_PERSON_ORGANIZATION ( #53, #155, #232 ) ;
#100 = DIRECTION ( 'NONE',  ( 3.491481338843133355E-15, -0.000000000000000000, 1.000000000000000000 ) ) ;
#101 = DIRECTION ( 'NONE',  ( 3.491481338843133355E-15, -0.000000000000000000, 1.000000000000000000 ) ) ;
#102 = CARTESIAN_POINT ( 'NONE',  ( 0.000000000000000000, 0.000000000000000000, 0.000000000000000000 ) ) ;
#103 = AXIS2_PLACEMENT_3D ( 'NONE', #271, #147, #85 ) ;
#104 = CARTESIAN_POINT ( 'NONE',  ( 0.6950000000000006173, 0.000000000000000000, 0.1962990915244700596 ) ) ;
#105 = CARTESIAN_POINT ( 'NONE',  ( 0.3890741737109477127, 0.000000000000000000, 5.358819045102510614 ) ) ;
#106 = FACE_OUTER_BOUND ( 'NONE', #50, .T. ) ;
#107 = AXIS2_PLACEMENT_3D ( 'NONE', #191, #43, #246 ) ;
#108 = COORDINATED_UNIVERSAL_TIME_OFFSET ( 1, 0, .AHEAD. ) ;
#109 = DESIGN_CONTEXT ( 'detailed design', #265, 'design' ) ;
#110 = PERSON_AND_ORGANIZATION_ROLE ( 'design_supplier' ) ;
#111 = APPROVAL ( #72, 'UNSPECIFIED' ) ;
#112 = PERSON_AND_ORGANIZATION ( #208, #169 ) ;
#113 = EDGE_CURVE ( 'NONE', #21, #21, #245, .T. ) ;
#114 = DIRECTION ( 'NONE',  ( 1.000000000000000000, 0.000000000000000000, -4.625929269271497155E-15 ) ) ;
#115 = FACE_OUTER_BOUND ( 'NONE', #154, .T. ) ;
#116 = CARTESIAN_POINT ( 'NONE',  ( 1.871021669421260278E-14, 0.000000000000000000, 5.358819045102512391 ) ) ;
#117 = CARTESIAN_POINT ( 'NONE',  ( 1.326762908760390423E-13, 0.000000000000000000, 38.00000000000000000 ) ) ;
#118 = PLANE ( 'NONE',  #212 ) ;
#119 = ADVANCED_FACE ( 'NONE', ( #35, #115 ), #220, .T. ) ;
#120 = AXIS2_PLACEMENT_3D ( 'NONE', #40, #239, #202 ) ;
#121 = VERTEX_POINT ( 'NONE', #207 ) ;
#122 = CARTESIAN_POINT ( 'NONE',  ( 0.3550000000000171907, 0.000000000000000000, 5.099999999999999645 ) ) ;
#123 = EDGE_CURVE ( 'NONE', #170, #170, #34, .T. ) ;
#124 = DIRECTION ( 'NONE',  ( 1.000000000000000000, 0.000000000000000000, 0.000000000000000000 ) ) ;
#125 =( LENGTH_UNIT ( ) NAMED_UNIT ( * ) SI_UNIT ( .MILLI., .METRE. ) );
#126 = AXIS2_PLACEMENT_3D ( 'NONE', #11, #180, #266 ) ;
#127 = APPROVAL_PERSON_ORGANIZATION ( #197, #203, #27 ) ;
#128 = ORIENTED_EDGE ( 'NONE', *, *, #78, .F. ) ;
#129 = PERSON_AND_ORGANIZATION_ROLE ( 'classification_officer' ) ;
#130 = LOCAL_TIME ( 7, 46, 10.00000000000000000, #172 ) ;
#131 = DATE_TIME_ROLE ( 'creation_date' ) ;
#132 = PERSON_AND_ORGANIZATION_ROLE ( 'creator' ) ;
#133 = PRODUCT ( '965991', '965991', '', ( #156 ) ) ;
#134 = EDGE_LOOP ( 'NONE', ( #79 ) ) ;
#135 = DIRECTION ( 'NONE',  ( 3.491481338843133355E-15, -0.000000000000000000, 1.000000000000000000 ) ) ;
#136 = CIRCLE ( 'NONE', #103, 0.6949999999999999512 ) ;
#137 = DIRECTION ( 'NONE',  ( 3.491481338843133355E-15, -0.000000000000000000, 1.000000000000000000 ) ) ;
#138 = CARTESIAN_POINT ( 'NONE',  ( 1.326762908760390423E-13, 0.000000000000000000, 38.00000000000000000 ) ) ;
#139 = DIRECTION ( 'NONE',  ( 1.000000000000000000, 0.000000000000000000, -3.512204220727690448E-15 ) ) ;
#140 = CLOSED_SHELL ( 'NONE', ( #66, #36, #47, #88, #263, #269, #252, #13, #168, #119 ) ) ;
#141 = LOCAL_TIME ( 7, 46, 10.00000000000000000, #108 ) ;
#142 = FACE_OUTER_BOUND ( 'NONE', #28, .T. ) ;
#143 = EDGE_CURVE ( 'NONE', #167, #167, #136, .T. ) ;
#144 = CARTESIAN_POINT ( 'NONE',  ( 1.871021669421260278E-14, 0.000000000000000000, 5.358819045102512391 ) ) ;
#145 = DIRECTION ( 'NONE',  ( -1.000000000000000000, 0.000000000000000000, 3.491481338843133355E-15 ) ) ;
#146 = AXIS2_PLACEMENT_3D ( 'NONE', #160, #264, #17 ) ;
#147 = DIRECTION ( 'NONE',  ( 3.491481338843133355E-15, -0.000000000000000000, 1.000000000000000000 ) ) ;
#148 = LOCAL_TIME ( 7, 46, 10.00000000000000000, #153 ) ;
#149 = CALENDAR_DATE ( 2023, 27, 9 ) ;
#150 = CALENDAR_DATE ( 2023, 27, 9 ) ;
#151 = EDGE_LOOP ( 'NONE', ( #68 ) ) ;
#152 = DATE_AND_TIME ( #234, #148 ) ;
#153 = COORDINATED_UNIVERSAL_TIME_OFFSET ( 1, 0, .AHEAD. ) ;
#154 = EDGE_LOOP ( 'NONE', ( #73 ) ) ;
#155 = APPROVAL ( #194, 'UNSPECIFIED' ) ;
#156 = MECHANICAL_CONTEXT ( 'NONE', #253, 'mechanical' ) ;
#157 = EDGE_LOOP ( 'NONE', ( #3 ) ) ;
#158 = CARTESIAN_POINT ( 'NONE',  ( 0.000000000000000000, 0.000000000000000000, 0.000000000000000000 ) ) ;
#159 = CARTESIAN_POINT ( 'NONE',  ( 0.000000000000000000, 0.000000000000000000, 0.000000000000000000 ) ) ;
#160 = CARTESIAN_POINT ( 'NONE',  ( 1.780655482809997696E-14, 0.000000000000000000, 5.099999999999999645 ) ) ;
#161 = DIRECTION ( 'NONE',  ( 1.000000000000000000, 0.000000000000000000, -3.491481338843132961E-15 ) ) ;
#162 = FACE_BOUND ( 'NONE', #219, .T. ) ;
#163 = CC_DESIGN_DATE_AND_TIME_ASSIGNMENT ( #152, #192, ( #250 ) ) ;
#164 = CONICAL_SURFACE ( 'NONE', #83, 0.3549999999999999267, 1.047197551196598519 ) ;
#165 = DIRECTION ( 'NONE',  ( -3.491481338843133355E-15, 0.000000000000000000, -1.000000000000000000 ) ) ;
#166 = FACE_BOUND ( 'NONE', #134, .T. ) ;
#167 = VERTEX_POINT ( 'NONE', #104 ) ;
#168 = ADVANCED_FACE ( 'NONE', ( #275, #166 ), #15, .T. ) ;
#169 = ORGANIZATION ( 'UNSPECIFIED', 'UNSPECIFIED', '' ) ;
#170 = VERTEX_POINT ( 'NONE', #122 ) ;
#171 = PERSON_AND_ORGANIZATION ( #208, #169 ) ;
#172 = COORDINATED_UNIVERSAL_TIME_OFFSET ( 1, 0, .AHEAD. ) ;
#173 = CALENDAR_DATE ( 2023, 27, 9 ) ;
#174 = ORIENTED_EDGE ( 'NONE', *, *, #39, .F. ) ;
#175 = PERSON_AND_ORGANIZATION ( #208, #169 ) ;
#176 = COORDINATED_UNIVERSAL_TIME_OFFSET ( 1, 0, .AHEAD. ) ;
#177 = AXIS2_PLACEMENT_3D ( 'NONE', #138, #59, #179 ) ;
#178 = CIRCLE ( 'NONE', #90, 1.500000000000000000 ) ;
#179 = DIRECTION ( 'NONE',  ( 1.000000000000000000, 0.000000000000000000, -5.782411586589390376E-15 ) ) ;
#180 = DIRECTION ( 'NONE',  ( -3.491481338843133355E-15, 0.000000000000000000, -1.000000000000000000 ) ) ;
#181 = DIRECTION ( 'NONE',  ( 3.491481338843133355E-15, -0.000000000000000000, 1.000000000000000000 ) ) ;
#182 = CIRCLE ( 'NONE', #206, 0.3890741737109290055 ) ;
#183 = FACE_OUTER_BOUND ( 'NONE', #151, .T. ) ;
#184 = DIRECTION ( 'NONE',  ( 1.000000000000000000, 0.000000000000000000, -2.443272501375788707E-15 ) ) ;
#185 = CC_DESIGN_DATE_AND_TIME_ASSIGNMENT ( #260, #131, ( #25 ) ) ;
#186 = FACE_BOUND ( 'NONE', #37, .T. ) ;
#187 =( GEOMETRIC_REPRESENTATION_CONTEXT ( 3 ) GLOBAL_UNCERTAINTY_ASSIGNED_CONTEXT ( ( #227 ) ) GLOBAL_UNIT_ASSIGNED_CONTEXT ( ( #125, #231, #251 ) ) REPRESENTATION_CONTEXT ( 'NONE', 'WORKASPACE' ) );
#188 = DIRECTION ( 'NONE',  ( 0.000000000000000000, 0.000000000000000000, 1.000000000000000000 ) ) ;
#189 = VERTEX_POINT ( 'NONE', #209 ) ;
#190 = DIRECTION ( 'NONE',  ( 3.491481338843133355E-15, -0.000000000000000000, 1.000000000000000000 ) ) ;
#191 = CARTESIAN_POINT ( 'NONE',  ( 1.316288464743861212E-13, 0.000000000000000000, 37.69999999999999574 ) ) ;
#192 = DATE_TIME_ROLE ( 'classification_date' ) ;
#193 = EDGE_LOOP ( 'NONE', ( #238 ) ) ;
#194 = APPROVAL_STATUS ( 'not_yet_approved' ) ;
#195 = ADVANCED_BREP_SHAPE_REPRESENTATION ( '965991', ( #229, #84 ), #187 ) ;
#196 = APPROVAL_ROLE ( '' ) ;
#197 = PERSON_AND_ORGANIZATION ( #208, #169 ) ;
#198 = CONICAL_SURFACE ( 'NONE', #107, 1.499999999999996225, 0.7853981633974504994 ) ;
#199 = DIRECTION ( 'NONE',  ( 3.491481338843133355E-15, -0.000000000000000000, 1.000000000000000000 ) ) ;
#200 = CC_DESIGN_PERSON_AND_ORGANIZATION_ASSIGNMENT ( #67, #215, ( #133 ) ) ;
#201 = CARTESIAN_POINT ( 'NONE',  ( 1.780655482809998011E-14, 0.000000000000000000, 5.100000000000000533 ) ) ;
#202 = DIRECTION ( 'NONE',  ( 1.000000000000000000, 0.000000000000000000, 0.000000000000000000 ) ) ;
#203 = APPROVAL ( #24, 'UNSPECIFIED' ) ;
#204 = FACE_OUTER_BOUND ( 'NONE', #205, .T. ) ;
#205 = EDGE_LOOP ( 'NONE', ( #237 ) ) ;
#206 = AXIS2_PLACEMENT_3D ( 'NONE', #116, #100, #12 ) ;
#207 = CARTESIAN_POINT ( 'NONE',  ( 0.3550000000000013700, 0.000000000000000000, 0.4092648497156086140 ) ) ;
#208 = PERSON ( 'UNSPECIFIED', 'UNSPECIFIED', 'UNSPECIFIED', ('UNSPECIFIED'), ('UNSPECIFIED'), ('UNSPECIFIED') ) ;
#209 = CARTESIAN_POINT ( 'NONE',  ( 1.500000000000033307, 0.000000000000000000, 9.504850672253867927 ) ) ;
#210 = CYLINDRICAL_SURFACE ( 'NONE', #61, 0.3549999999999997047 ) ;
#211 = CC_DESIGN_PERSON_AND_ORGANIZATION_ASSIGNMENT ( #171, #29, ( #25 ) ) ;
#212 = AXIS2_PLACEMENT_3D ( 'NONE', #158, #135, #57 ) ;
#213 = APPLICATION_PROTOCOL_DEFINITION ( 'international standard', 'config_control_design', 1994, #265 ) ;
#214 = AXIS2_PLACEMENT_3D ( 'NONE', #16, #137, #139 ) ;
#215 = PERSON_AND_ORGANIZATION_ROLE ( 'design_owner' ) ;
#216 = EDGE_LOOP ( 'NONE', ( #49 ) ) ;
#217 = FACE_OUTER_BOUND ( 'NONE', #193, .T. ) ;
#218 = FACE_OUTER_BOUND ( 'NONE', #7, .T. ) ;
#219 = EDGE_LOOP ( 'NONE', ( #222 ) ) ;
#220 = CYLINDRICAL_SURFACE ( 'NONE', #20, 1.499999999999998002 ) ;
#221 = CC_DESIGN_SECURITY_CLASSIFICATION ( #250, ( #226 ) ) ;
#222 = ORIENTED_EDGE ( 'NONE', *, *, #96, .F. ) ;
#223 = CARTESIAN_POINT ( 'NONE',  ( 1.200000000000125855, 0.000000000000000000, 37.99999999999999289 ) ) ;
#224 = VERTEX_POINT ( 'NONE', #105 ) ;
#225 = CC_DESIGN_PERSON_AND_ORGANIZATION_ASSIGNMENT ( #74, #129, ( #250 ) ) ;
#226 = PRODUCT_DEFINITION_FORMATION_WITH_SPECIFIED_SOURCE ( 'ANY', '', #133, .NOT_KNOWN. ) ;
#227 = UNCERTAINTY_MEASURE_WITH_UNIT (LENGTH_MEASURE( 1.000000000000000082E-05 ), #125, 'distance_accuracy_value', 'NONE');
#228 = CARTESIAN_POINT ( 'NONE',  ( 3.318600875066501218E-14, 0.000000000000000000, 9.504850672253873256 ) ) ;
#229 = MANIFOLD_SOLID_BREP ( 'Corps-Déplacer/Copier1', #140 ) ;
#230 = PLANE ( 'NONE',  #46 ) ;
#231 =( NAMED_UNIT ( * ) PLANE_ANGLE_UNIT ( ) SI_UNIT ( $, .RADIAN. ) );
#232 = APPROVAL_ROLE ( '' ) ;
#233 = EDGE_LOOP ( 'NONE', ( #77 ) ) ;
#234 = CALENDAR_DATE ( 2023, 27, 9 ) ;
#235 = ORIENTED_EDGE ( 'NONE', *, *, #39, .T. ) ;
#236 = APPROVAL_DATE_TIME ( #6, #155 ) ;
#237 = ORIENTED_EDGE ( 'NONE', *, *, #143, .T. ) ;
#238 = ORIENTED_EDGE ( 'NONE', *, *, #123, .T. ) ;
#239 = DIRECTION ( 'NONE',  ( 3.491481338843133355E-15, -0.000000000000000000, 1.000000000000000000 ) ) ;
#240 = CIRCLE ( 'NONE', #177, 1.199999999999993072 ) ;
#241 = CYLINDRICAL_SURFACE ( 'NONE', #120, 0.6949999999999999512 ) ;
#242 = DIRECTION ( 'NONE',  ( 3.491481338843133355E-15, -0.000000000000000000, 1.000000000000000000 ) ) ;
#243 = DIRECTION ( 'NONE',  ( 1.000000000000000000, 0.000000000000000000, -3.491481338843132961E-15 ) ) ;
#244 = CIRCLE ( 'NONE', #214, 0.3549999999999999822 ) ;
#245 = CIRCLE ( 'NONE', #274, 0.3549999999999999267 ) ;
#246 = DIRECTION ( 'NONE',  ( -1.000000000000000000, 0.000000000000000000, 4.625929269271497155E-15 ) ) ;
#247 = CC_DESIGN_PERSON_AND_ORGANIZATION_ASSIGNMENT ( #93, #110, ( #226 ) ) ;
#248 = VERTEX_POINT ( 'NONE', #223 ) ;
#249 = DIRECTION ( 'NONE',  ( 1.000000000000000000, 0.000000000000000000, -3.469446951953614189E-15 ) ) ;
#250 = SECURITY_CLASSIFICATION ( '', '', #91 ) ;
#251 =( NAMED_UNIT ( * ) SI_UNIT ( $, .STERADIAN. ) SOLID_ANGLE_UNIT ( ) );
#252 = ADVANCED_FACE ( 'NONE', ( #2 ), #230, .F. ) ;
#253 = APPLICATION_CONTEXT ( 'configuration controlled 3d designs of mechanical parts and assemblies' ) ;
#254 = DIRECTION ( 'NONE',  ( 3.491481338843133355E-15, -0.000000000000000000, 1.000000000000000000 ) ) ;
#255 = CALENDAR_DATE ( 2023, 27, 9 ) ;
#256 = ORIENTED_EDGE ( 'NONE', *, *, #96, .T. ) ;
#257 = ORIENTED_EDGE ( 'NONE', *, *, #143, .F. ) ;
#258 = EDGE_CURVE ( 'NONE', #189, #189, #178, .T. ) ;
#259 = ORIENTED_EDGE ( 'NONE', *, *, #30, .T. ) ;
#260 = DATE_AND_TIME ( #150, #130 ) ;
#261 = DATE_AND_TIME ( #149, #141 ) ;
#262 = APPROVAL_PERSON_ORGANIZATION ( #175, #111, #196 ) ;
#263 = ADVANCED_FACE ( 'NONE', ( #19, #86 ), #210, .T. ) ;
#264 = DIRECTION ( 'NONE',  ( 3.491481338843133355E-15, -0.000000000000000000, 1.000000000000000000 ) ) ;
#265 = APPLICATION_CONTEXT ( 'configuration controlled 3d designs of mechanical parts and assemblies' ) ;
#266 = DIRECTION ( 'NONE',  ( -1.000000000000000000, 0.000000000000000000, 3.510007033226453485E-15 ) ) ;
#267 = TOROIDAL_SURFACE ( 'NONE', #146, 1.354999999999999316, 1.000000000000000000 ) ;
#268 = AXIS2_PLACEMENT_3D ( 'NONE', #144, #23, #63 ) ;
#269 = ADVANCED_FACE ( 'NONE', ( #186, #106 ), #198, .T. ) ;
#270 = CARTESIAN_POINT ( 'NONE',  ( 0.000000000000000000, 0.000000000000000000, 0.000000000000000000 ) ) ;
#271 = CARTESIAN_POINT ( 'NONE',  ( 6.853746148895560116E-16, 0.000000000000000000, 0.1962990915244725021 ) ) ;
#272 = CARTESIAN_POINT ( 'NONE',  ( 0.3549999999999999267, 0.000000000000000000, -1.239475875289311907E-15 ) ) ;
#273 = PRODUCT_RELATED_PRODUCT_CATEGORY ( 'detail', '', ( #133 ) ) ;
#274 = AXIS2_PLACEMENT_3D ( 'NONE', #270, #81, #243 ) ;
#275 = FACE_OUTER_BOUND ( 'NONE', #157, .T. ) ;
ENDSEC;
END-ISO-10303-21;
