ISO-10303-21;
HEADER;
FILE_DESCRIPTION (( 'STEP AP203' ),
    '1' );
FILE_NAME ('965990.step',
    '2023-09-27T05:46:10',
    ( '' ),
    ( '' ),
    'SwSTEP 2.0',
    'SolidWorks 2022',
    '' );
FILE_SCHEMA (( 'CONFIG_CONTROL_DESIGN' ));
ENDSEC;

DATA;
#1 = DIRECTION ( 'NONE',  ( 1.000000000000000000, 0.000000000000000000, -3.491481338843133355E-15 ) ) ;
#2 = EDGE_CURVE ( 'NONE', #220, #220, #22, .T. ) ;
#3 = DIRECTION ( 'NONE',  ( 1.000000000000000000, 0.000000000000000000, -2.668805347656630031E-15 ) ) ;
#4 = DIRECTION ( 'NONE',  ( 1.000000000000000000, 0.000000000000000000, -4.625929269271497155E-15 ) ) ;
#5 = EDGE_CURVE ( 'NONE', #100, #100, #75, .T. ) ;
#6 = EDGE_LOOP ( 'NONE', ( #29 ) ) ;
#7 = AXIS2_PLACEMENT_3D ( 'NONE', #232, #70, #113 ) ;
#8 = CARTESIAN_POINT ( 'NONE',  ( 3.148203151986636916E-14, 0.000000000000000000, 9.016812196480941566 ) ) ;
#9 = ORGANIZATION ( 'UNSPECIFIED', 'UNSPECIFIED', '' ) ;
#10 = CARTESIAN_POINT ( 'NONE',  ( 0.5950000000000006395, 0.000000000000000000, 0.1850512393478644102 ) ) ;
#11 = CARTESIAN_POINT ( 'NONE',  ( 1.326762908760390423E-13, 0.000000000000000000, 38.00000000000000000 ) ) ;
#12 = CARTESIAN_POINT ( 'NONE',  ( 0.3250000000000152767, 0.000000000000000000, 4.499999999999996447 ) ) ;
#13 = AXIS2_PLACEMENT_3D ( 'NONE', #122, #123, #99 ) ;
#14 = DIRECTION ( 'NONE',  ( 3.491481338843133355E-15, -0.000000000000000000, 1.000000000000000000 ) ) ;
#15 = APPROVAL_STATUS ( 'not_yet_approved' ) ;
#16 = EDGE_LOOP ( 'NONE', ( #89 ) ) ;
#17 = ORIENTED_EDGE ( 'NONE', *, *, #2, .T. ) ;
#18 = AXIS2_PLACEMENT_3D ( 'NONE', #118, #132, #124 ) ;
#19 = DESIGN_CONTEXT ( 'detailed design', #55, 'design' ) ;
#20 = PERSON_AND_ORGANIZATION ( #116, #9 ) ;
#21 = DIRECTION ( 'NONE',  ( 0.000000000000000000, 0.000000000000000000, 1.000000000000000000 ) ) ;
#22 = CIRCLE ( 'NONE', #162, 0.5949999999999999734 ) ;
#23 = AXIS2_PLACEMENT_3D ( 'NONE', #192, #173, #3 ) ;
#24 = CYLINDRICAL_SURFACE ( 'NONE', #7, 1.499999999999998002 ) ;
#25 = EDGE_CURVE ( 'NONE', #36, #36, #146, .T. ) ;
#26 = FACE_BOUND ( 'NONE', #64, .T. ) ;
#27 = DIRECTION ( 'NONE',  ( 1.000000000000000000, 0.000000000000000000, -3.491481338843133355E-15 ) ) ;
#28 = CONICAL_SURFACE ( 'NONE', #153, 0.3249999999999999556, 1.047197551196605625 ) ;
#29 = ORIENTED_EDGE ( 'NONE', *, *, #79, .T. ) ;
#30 = DIRECTION ( 'NONE',  ( 1.000000000000000000, 0.000000000000000000, -3.507712910982514647E-15 ) ) ;
#31 = VERTEX_POINT ( 'NONE', #263 ) ;
#32 = DIRECTION ( 'NONE',  ( 3.491481338843133355E-15, -0.000000000000000000, 1.000000000000000000 ) ) ;
#33 = CC_DESIGN_APPROVAL ( #140, ( #38 ) ) ;
#34 = FACE_OUTER_BOUND ( 'NONE', #187, .T. ) ;
#35 = PRODUCT_DEFINITION_SHAPE ( 'NONE', 'NONE',  #91 ) ;
#36 = VERTEX_POINT ( 'NONE', #37 ) ;
#37 = CARTESIAN_POINT ( 'NONE',  ( 0.3250000000000011768, 0.000000000000000000, 0.3409358120290614247 ) ) ;
#38 = SECURITY_CLASSIFICATION ( '', '', #245 ) ;
#39 = DATE_TIME_ROLE ( 'classification_date' ) ;
#40 = SHAPE_DEFINITION_REPRESENTATION ( #35, #257 ) ;
#41 = AXIS2_PLACEMENT_3D ( 'NONE', #244, #261, #167 ) ;
#42 = ORIENTED_EDGE ( 'NONE', *, *, #256, .T. ) ;
#43 = CARTESIAN_POINT ( 'NONE',  ( 0.000000000000000000, 0.000000000000000000, 0.000000000000000000 ) ) ;
#44 = DIRECTION ( 'NONE',  ( 3.491481338843133355E-15, -0.000000000000000000, 1.000000000000000000 ) ) ;
#45 = CC_DESIGN_PERSON_AND_ORGANIZATION_ASSIGNMENT ( #20, #109, ( #38 ) ) ;
#46 = DIRECTION ( 'NONE',  ( 3.491481338843133355E-15, -0.000000000000000000, 1.000000000000000000 ) ) ;
#47 = EDGE_LOOP ( 'NONE', ( #267 ) ) ;
#48 = CC_DESIGN_PERSON_AND_ORGANIZATION_ASSIGNMENT ( #87, #251, ( #115 ) ) ;
#49 = EDGE_LOOP ( 'NONE', ( #207 ) ) ;
#50 = FACE_OUTER_BOUND ( 'NONE', #108, .T. ) ;
#51 = DIRECTION ( 'NONE',  ( 3.491481338843133355E-15, -0.000000000000000000, 1.000000000000000000 ) ) ;
#52 = DIRECTION ( 'NONE',  ( 1.000000000000000000, 0.000000000000000000, -3.469446951953614189E-15 ) ) ;
#53 = ADVANCED_FACE ( 'NONE', ( #194, #92 ), #24, .T. ) ;
#54 = DIRECTION ( 'NONE',  ( 1.000000000000000000, 0.000000000000000000, 0.000000000000000000 ) ) ;
#55 = APPLICATION_CONTEXT ( 'configuration controlled 3d designs of mechanical parts and assemblies' ) ;
#56 = CYLINDRICAL_SURFACE ( 'NONE', #195, 0.5949999999999999734 ) ;
#57 = CARTESIAN_POINT ( 'NONE',  ( 1.316288464743861212E-13, 0.000000000000000000, 37.69999999999999574 ) ) ;
#58 = EDGE_CURVE ( 'NONE', #143, #143, #246, .T. ) ;
#59 = PERSON_AND_ORGANIZATION ( #116, #9 ) ;
#60 = LOCAL_TIME ( 7, 46, 10.00000000000000000, #150 ) ;
#61 = CALENDAR_DATE ( 2023, 27, 9 ) ;
#62 = APPROVAL_DATE_TIME ( #83, #225 ) ;
#63 = PERSON_AND_ORGANIZATION ( #116, #9 ) ;
#64 = EDGE_LOOP ( 'NONE', ( #234 ) ) ;
#65 = CONICAL_SURFACE ( 'NONE', #133, 1.499999999999996225, 0.7853981633974504994 ) ;
#66 = APPLICATION_CONTEXT ( 'configuration controlled 3d designs of mechanical parts and assemblies' ) ;
#67 = APPROVAL_ROLE ( '' ) ;
#68 = ORIENTED_EDGE ( 'NONE', *, *, #2, .F. ) ;
#69 = EDGE_CURVE ( 'NONE', #182, #182, #172, .T. ) ;
#70 = DIRECTION ( 'NONE',  ( 3.491481338843133355E-15, -0.000000000000000000, 1.000000000000000000 ) ) ;
#71 = CONICAL_SURFACE ( 'NONE', #218, 0.3590741737109291454, 0.2617993877991430240 ) ;
#72 = ORIENTED_EDGE ( 'NONE', *, *, #256, .F. ) ;
#73 = CARTESIAN_POINT ( 'NONE',  ( 1.316288464743861212E-13, 0.000000000000000000, 37.69999999999999574 ) ) ;
#74 = FACE_OUTER_BOUND ( 'NONE', #155, .T. ) ;
#75 = CIRCLE ( 'NONE', #111, 0.3249999999999999556 ) ;
#76 = CC_DESIGN_APPROVAL ( #166, ( #91 ) ) ;
#77 = DIRECTION ( 'NONE',  ( 1.000000000000000000, 0.000000000000000000, -3.507712910982514647E-15 ) ) ;
#78 = CYLINDRICAL_SURFACE ( 'NONE', #104, 0.3249999999999997891 ) ;
#79 = EDGE_CURVE ( 'NONE', #224, #224, #184, .T. ) ;
#80 = CARTESIAN_POINT ( 'NONE',  ( 0.5950000000000005285, 0.000000000000000000, 0.1558845726811940169 ) ) ;
#81 = CC_DESIGN_APPROVAL ( #225, ( #242 ) ) ;
#82 =( NAMED_UNIT ( * ) SI_UNIT ( $, .STERADIAN. ) SOLID_ANGLE_UNIT ( ) );
#83 = DATE_AND_TIME ( #229, #190 ) ;
#84 = CALENDAR_DATE ( 2023, 27, 9 ) ;
#85 = LOCAL_TIME ( 7, 46, 10.00000000000000000, #271 ) ;
#86 = UNCERTAINTY_MEASURE_WITH_UNIT (LENGTH_MEASURE( 1.000000000000000082E-05 ), #243, 'distance_accuracy_value', 'NONE');
#87 = PERSON_AND_ORGANIZATION ( #116, #9 ) ;
#88 = COORDINATED_UNIVERSAL_TIME_OFFSET ( 1, 0, .AHEAD. ) ;
#89 = ORIENTED_EDGE ( 'NONE', *, *, #5, .F. ) ;
#90 = CALENDAR_DATE ( 2023, 27, 9 ) ;
#91 = PRODUCT_DEFINITION ( 'UNKNOWN', '', #242, #19 ) ;
#92 = FACE_OUTER_BOUND ( 'NONE', #49, .T. ) ;
#93 = ADVANCED_FACE ( 'NONE', ( #96, #176 ), #28, .T. ) ;
#94 = APPROVAL_PERSON_ORGANIZATION ( #59, #166, #67 ) ;
#95 = CARTESIAN_POINT ( 'NONE',  ( 1.661532789090673539E-14, 0.000000000000000000, 4.758819045102516299 ) ) ;
#96 = FACE_OUTER_BOUND ( 'NONE', #275, .T. ) ;
#97 = ORIENTED_EDGE ( 'NONE', *, *, #25, .F. ) ;
#98 = ADVANCED_FACE ( 'NONE', ( #74, #26 ), #71, .T. ) ;
#99 = DIRECTION ( 'NONE',  ( -1.000000000000000000, 0.000000000000000000, 3.491481338843133355E-15 ) ) ;
#100 = VERTEX_POINT ( 'NONE', #226 ) ;
#101 = CARTESIAN_POINT ( 'NONE',  ( 0.3590741737109457432, 0.000000000000000000, 4.758819045102515410 ) ) ;
#102 = ADVANCED_FACE ( 'NONE', ( #50, #177 ), #120, .F. ) ;
#103 =( NAMED_UNIT ( * ) PLANE_ANGLE_UNIT ( ) SI_UNIT ( $, .RADIAN. ) );
#104 = AXIS2_PLACEMENT_3D ( 'NONE', #181, #203, #165 ) ;
#105 = FACE_OUTER_BOUND ( 'NONE', #248, .T. ) ;
#106 = DATE_AND_TIME ( #61, #112 ) ;
#107 = CC_DESIGN_DATE_AND_TIME_ASSIGNMENT ( #250, #212, ( #91 ) ) ;
#108 = EDGE_LOOP ( 'NONE', ( #159 ) ) ;
#109 = PERSON_AND_ORGANIZATION_ROLE ( 'classification_officer' ) ;
#110 = EDGE_LOOP ( 'NONE', ( #216 ) ) ;
#111 = AXIS2_PLACEMENT_3D ( 'NONE', #237, #197, #27 ) ;
#112 = LOCAL_TIME ( 7, 46, 10.00000000000000000, #206 ) ;
#113 = DIRECTION ( 'NONE',  ( 1.000000000000000000, 0.000000000000000000, -4.625929269271491633E-15 ) ) ;
#114 = DIRECTION ( 'NONE',  ( 3.491481338843133355E-15, -0.000000000000000000, 1.000000000000000000 ) ) ;
#115 = PRODUCT ( '965990', '965990', '', ( #131 ) ) ;
#116 = PERSON ( 'UNSPECIFIED', 'UNSPECIFIED', 'UNSPECIFIED', ('UNSPECIFIED'), ('UNSPECIFIED'), ('UNSPECIFIED') ) ;
#117 = DIRECTION ( 'NONE',  ( 3.491481338843133355E-15, -0.000000000000000000, 1.000000000000000000 ) ) ;
#118 = CARTESIAN_POINT ( 'NONE',  ( 0.000000000000000000, 0.000000000000000000, 0.000000000000000000 ) ) ;
#119 = ADVANCED_FACE ( 'NONE', ( #139 ), #219, .F. ) ;
#120 = TOROIDAL_SURFACE ( 'NONE', #265, 1.324999999999999289, 1.000000000000000000 ) ;
#121 = DIRECTION ( 'NONE',  ( 1.000000000000000000, 0.000000000000000000, -5.782411586589390376E-15 ) ) ;
#122 = CARTESIAN_POINT ( 'NONE',  ( 1.326762908760390423E-13, 1.199999999999993072, 38.00000000000000000 ) ) ;
#123 = DIRECTION ( 'NONE',  ( -3.491481338843133355E-15, 0.000000000000000000, -1.000000000000000000 ) ) ;
#124 = DIRECTION ( 'NONE',  ( 1.000000000000000000, 0.000000000000000000, -3.491481338843133355E-15 ) ) ;
#125 = CIRCLE ( 'NONE', #204, 1.500000000000000000 ) ;
#126 = APPROVAL_ROLE ( '' ) ;
#127 = EDGE_CURVE ( 'NONE', #31, #31, #125, .T. ) ;
#128 = APPROVAL_DATE_TIME ( #171, #166 ) ;
#129 = EDGE_LOOP ( 'NONE', ( #160 ) ) ;
#130 = CC_DESIGN_PERSON_AND_ORGANIZATION_ASSIGNMENT ( #169, #211, ( #242 ) ) ;
#131 = MECHANICAL_CONTEXT ( 'NONE', #66, 'mechanical' ) ;
#132 = DIRECTION ( 'NONE',  ( 3.491481338843133355E-15, -0.000000000000000000, 1.000000000000000000 ) ) ;
#133 = AXIS2_PLACEMENT_3D ( 'NONE', #57, #168, #201 ) ;
#134 = EDGE_LOOP ( 'NONE', ( #68 ) ) ;
#135 = EDGE_LOOP ( 'NONE', ( #72 ) ) ;
#136 = DIRECTION ( 'NONE',  ( 3.491481338843133355E-15, -0.000000000000000000, 1.000000000000000000 ) ) ;
#137 = CLOSED_SHELL ( 'NONE', ( #119, #93, #235, #151, #208, #158, #196, #102, #98, #53 ) ) ;
#138 = AXIS2_PLACEMENT_3D ( 'NONE', #221, #141, #77 ) ;
#139 = FACE_OUTER_BOUND ( 'NONE', #16, .T. ) ;
#140 = APPROVAL ( #15, 'UNSPECIFIED' ) ;
#141 = DIRECTION ( 'NONE',  ( 3.491481338843133355E-15, -0.000000000000000000, 1.000000000000000000 ) ) ;
#142 = FACE_BOUND ( 'NONE', #135, .T. ) ;
#143 = VERTEX_POINT ( 'NONE', #12 ) ;
#144 = MANIFOLD_SOLID_BREP ( 'Corps-Déplacer/Copier1', #137 ) ;
#145 = CARTESIAN_POINT ( 'NONE',  ( 1.326762908760390423E-13, 0.000000000000000000, 38.00000000000000000 ) ) ;
#146 = CIRCLE ( 'NONE', #178, 0.3250000000000000111 ) ;
#147 = APPLICATION_PROTOCOL_DEFINITION ( 'international standard', 'config_control_design', 1994, #66 ) ;
#148 = APPROVAL_DATE_TIME ( #106, #140 ) ;
#149 = ORIENTED_EDGE ( 'NONE', *, *, #127, .F. ) ;
#150 = COORDINATED_UNIVERSAL_TIME_OFFSET ( 1, 0, .AHEAD. ) ;
#151 = ADVANCED_FACE ( 'NONE', ( #199, #105 ), #253, .T. ) ;
#152 = DIRECTION ( 'NONE',  ( 1.000000000000000000, 0.000000000000000000, 0.000000000000000000 ) ) ;
#153 = AXIS2_PLACEMENT_3D ( 'NONE', #260, #46, #215 ) ;
#154 = EDGE_LOOP ( 'NONE', ( #97 ) ) ;
#155 = EDGE_LOOP ( 'NONE', ( #149 ) ) ;
#156 = EDGE_LOOP ( 'NONE', ( #161 ) ) ;
#157 = AXIS2_PLACEMENT_3D ( 'NONE', #73, #136, #4 ) ;
#158 = ADVANCED_FACE ( 'NONE', ( #142, #241 ), #65, .T. ) ;
#159 = ORIENTED_EDGE ( 'NONE', *, *, #69, .F. ) ;
#160 = ORIENTED_EDGE ( 'NONE', *, *, #58, .F. ) ;
#161 = ORIENTED_EDGE ( 'NONE', *, *, #79, .F. ) ;
#162 = AXIS2_PLACEMENT_3D ( 'NONE', #174, #114, #30 ) ;
#163 = APPROVAL_PERSON_ORGANIZATION ( #63, #225, #185 ) ;
#164 = FACE_OUTER_BOUND ( 'NONE', #47, .T. ) ;
#165 = DIRECTION ( 'NONE',  ( 1.000000000000000000, 0.000000000000000000, 0.000000000000000000 ) ) ;
#166 = APPROVAL ( #254, 'UNSPECIFIED' ) ;
#167 = DIRECTION ( 'NONE',  ( -1.000000000000000000, 0.000000000000000000, 3.507712910982514647E-15 ) ) ;
#168 = DIRECTION ( 'NONE',  ( -3.491481338843133355E-15, 0.000000000000000000, -1.000000000000000000 ) ) ;
#169 = PERSON_AND_ORGANIZATION ( #116, #9 ) ;
#170 = CALENDAR_DATE ( 2023, 27, 9 ) ;
#171 = DATE_AND_TIME ( #90, #179 ) ;
#172 = CIRCLE ( 'NONE', #233, 0.3590741737109291454 ) ;
#173 = DIRECTION ( 'NONE',  ( 3.491481338843133355E-15, -0.000000000000000000, 1.000000000000000000 ) ) ;
#174 = CARTESIAN_POINT ( 'NONE',  ( 6.461029489128699467E-16, 0.000000000000000000, 0.1850512393478664919 ) ) ;
#175 = DIRECTION ( 'NONE',  ( 1.000000000000000000, 0.000000000000000000, -3.502807018799321714E-15 ) ) ;
#176 = FACE_BOUND ( 'NONE', #110, .T. ) ;
#177 = FACE_OUTER_BOUND ( 'NONE', #270, .T. ) ;
#178 = AXIS2_PLACEMENT_3D ( 'NONE', #255, #117, #175 ) ;
#179 = LOCAL_TIME ( 7, 46, 10.00000000000000000, #269 ) ;
#180 = AXIS2_PLACEMENT_3D ( 'NONE', #43, #21, #152 ) ;
#181 = CARTESIAN_POINT ( 'NONE',  ( 1.326762908760390423E-13, 0.000000000000000000, 38.00000000000000000 ) ) ;
#182 = VERTEX_POINT ( 'NONE', #101 ) ;
#183 = VERTEX_POINT ( 'NONE', #264 ) ;
#184 = CIRCLE ( 'NONE', #157, 1.499999999999996225 ) ;
#185 = APPROVAL_ROLE ( '' ) ;
#186 = PERSON_AND_ORGANIZATION_ROLE ( 'design_supplier' ) ;
#187 = EDGE_LOOP ( 'NONE', ( #42 ) ) ;
#188 = APPLICATION_PROTOCOL_DEFINITION ( 'international standard', 'config_control_design', 1994, #55 ) ;
#189 = PERSON_AND_ORGANIZATION ( #116, #9 ) ;
#190 = LOCAL_TIME ( 7, 46, 10.00000000000000000, #88 ) ;
#191 = CC_DESIGN_PERSON_AND_ORGANIZATION_ASSIGNMENT ( #209, #186, ( #242 ) ) ;
#192 = CARTESIAN_POINT ( 'NONE',  ( 1.571166602479409063E-14, 0.000000000000000000, 4.499999999999997335 ) ) ;
#193 = DIRECTION ( 'NONE',  ( 3.491481338843133355E-15, -0.000000000000000000, 1.000000000000000000 ) ) ;
#194 = FACE_OUTER_BOUND ( 'NONE', #156, .T. ) ;
#195 = AXIS2_PLACEMENT_3D ( 'NONE', #145, #51, #54 ) ;
#196 = ADVANCED_FACE ( 'NONE', ( #34 ), #205, .F. ) ;
#197 = DIRECTION ( 'NONE',  ( 3.491481338843133355E-15, -0.000000000000000000, 1.000000000000000000 ) ) ;
#198 = CARTESIAN_POINT ( 'NONE',  ( 1.571166602479410010E-14, 0.000000000000000000, 4.500000000000000000 ) ) ;
#199 = FACE_BOUND ( 'NONE', #154, .T. ) ;
#200 = PRODUCT_RELATED_PRODUCT_CATEGORY ( 'detail', '', ( #115 ) ) ;
#201 = DIRECTION ( 'NONE',  ( -1.000000000000000000, 0.000000000000000000, 4.625929269271497155E-15 ) ) ;
#202 = VERTEX_POINT ( 'NONE', #80 ) ;
#203 = DIRECTION ( 'NONE',  ( 3.491481338843133355E-15, -0.000000000000000000, 1.000000000000000000 ) ) ;
#204 = AXIS2_PLACEMENT_3D ( 'NONE', #8, #14, #52 ) ;
#205 = PLANE ( 'NONE',  #13 ) ;
#206 = COORDINATED_UNIVERSAL_TIME_OFFSET ( 1, 0, .AHEAD. ) ;
#207 = ORIENTED_EDGE ( 'NONE', *, *, #127, .T. ) ;
#208 = ADVANCED_FACE ( 'NONE', ( #262, #164 ), #78, .T. ) ;
#209 = PERSON_AND_ORGANIZATION ( #116, #9 ) ;
#210 = AXIS2_PLACEMENT_3D ( 'NONE', #11, #32, #121 ) ;
#211 = PERSON_AND_ORGANIZATION_ROLE ( 'creator' ) ;
#212 = DATE_TIME_ROLE ( 'creation_date' ) ;
#213 = CC_DESIGN_SECURITY_CLASSIFICATION ( #38, ( #242 ) ) ;
#214 = CARTESIAN_POINT ( 'NONE',  ( 1.661532789090673539E-14, 0.000000000000000000, 4.758819045102516299 ) ) ;
#215 = DIRECTION ( 'NONE',  ( 1.000000000000000000, 0.000000000000000000, -3.491481338843133355E-15 ) ) ;
#216 = ORIENTED_EDGE ( 'NONE', *, *, #5, .T. ) ;
#217 = ORIENTED_EDGE ( 'NONE', *, *, #231, .T. ) ;
#218 = AXIS2_PLACEMENT_3D ( 'NONE', #214, #44, #258 ) ;
#219 = PLANE ( 'NONE',  #18 ) ;
#220 = VERTEX_POINT ( 'NONE', #10 ) ;
#221 = CARTESIAN_POINT ( 'NONE',  ( 5.442680765299322405E-16, 0.000000000000000000, 0.1558845726811960986 ) ) ;
#222 = CIRCLE ( 'NONE', #210, 1.199999999999993072 ) ;
#223 = CARTESIAN_POINT ( 'NONE',  ( 1.500000000000127676, 0.000000000000000000, 37.69999999999998863 ) ) ;
#224 = VERTEX_POINT ( 'NONE', #223 ) ;
#225 = APPROVAL ( #228, 'UNSPECIFIED' ) ;
#226 = CARTESIAN_POINT ( 'NONE',  ( 0.3249999999999999556, 0.000000000000000000, -1.134731435124018143E-15 ) ) ;
#227 = APPROVAL_PERSON_ORGANIZATION ( #273, #140, #126 ) ;
#228 = APPROVAL_STATUS ( 'not_yet_approved' ) ;
#229 = CALENDAR_DATE ( 2023, 27, 9 ) ;
#230 = ORIENTED_EDGE ( 'NONE', *, *, #58, .T. ) ;
#231 = EDGE_CURVE ( 'NONE', #202, #202, #268, .T. ) ;
#232 = CARTESIAN_POINT ( 'NONE',  ( 1.326762908760390423E-13, 0.000000000000000000, 38.00000000000000000 ) ) ;
#233 = AXIS2_PLACEMENT_3D ( 'NONE', #95, #259, #238 ) ;
#234 = ORIENTED_EDGE ( 'NONE', *, *, #69, .T. ) ;
#235 = ADVANCED_FACE ( 'NONE', ( #240, #239 ), #56, .T. ) ;
#236 = ORIENTED_EDGE ( 'NONE', *, *, #231, .F. ) ;
#237 = CARTESIAN_POINT ( 'NONE',  ( 0.000000000000000000, 0.000000000000000000, 0.000000000000000000 ) ) ;
#238 = DIRECTION ( 'NONE',  ( 1.000000000000000000, 0.000000000000000000, -2.415550327734427290E-15 ) ) ;
#239 = FACE_OUTER_BOUND ( 'NONE', #252, .T. ) ;
#240 = FACE_OUTER_BOUND ( 'NONE', #134, .T. ) ;
#241 = FACE_OUTER_BOUND ( 'NONE', #6, .T. ) ;
#242 = PRODUCT_DEFINITION_FORMATION_WITH_SPECIFIED_SOURCE ( 'ANY', '', #115, .NOT_KNOWN. ) ;
#243 =( LENGTH_UNIT ( ) NAMED_UNIT ( * ) SI_UNIT ( .MILLI., .METRE. ) );
#244 = CARTESIAN_POINT ( 'NONE',  ( 6.461029489128699467E-16, 0.000000000000000000, 0.1850512393478664919 ) ) ;
#245 = SECURITY_CLASSIFICATION_LEVEL ( 'unclassified' ) ;
#246 = CIRCLE ( 'NONE', #23, 0.3249999999999995670 ) ;
#247 = DATE_AND_TIME ( #84, #60 ) ;
#248 = EDGE_LOOP ( 'NONE', ( #17 ) ) ;
#249 = CC_DESIGN_DATE_AND_TIME_ASSIGNMENT ( #247, #39, ( #38 ) ) ;
#250 = DATE_AND_TIME ( #170, #85 ) ;
#251 = PERSON_AND_ORGANIZATION_ROLE ( 'design_owner' ) ;
#252 = EDGE_LOOP ( 'NONE', ( #217 ) ) ;
#253 = CONICAL_SURFACE ( 'NONE', #41, 0.5949999999999999734, 1.047197551196605625 ) ;
#254 = APPROVAL_STATUS ( 'not_yet_approved' ) ;
#255 = CARTESIAN_POINT ( 'NONE',  ( 1.190371025442802286E-15, 0.000000000000000000, 0.3409358120290625904 ) ) ;
#256 = EDGE_CURVE ( 'NONE', #183, #183, #222, .T. ) ;
#257 = ADVANCED_BREP_SHAPE_REPRESENTATION ( '965990', ( #144, #180 ), #274 ) ;
#258 = DIRECTION ( 'NONE',  ( 1.000000000000000000, 0.000000000000000000, -2.415550327734427290E-15 ) ) ;
#259 = DIRECTION ( 'NONE',  ( 3.491481338843133355E-15, -0.000000000000000000, 1.000000000000000000 ) ) ;
#260 = CARTESIAN_POINT ( 'NONE',  ( 0.000000000000000000, 0.000000000000000000, 0.000000000000000000 ) ) ;
#261 = DIRECTION ( 'NONE',  ( -3.491481338843133355E-15, 0.000000000000000000, -1.000000000000000000 ) ) ;
#262 = FACE_OUTER_BOUND ( 'NONE', #129, .T. ) ;
#263 = CARTESIAN_POINT ( 'NONE',  ( 1.500000000000031530, 0.000000000000000000, 9.016812196480936237 ) ) ;
#264 = CARTESIAN_POINT ( 'NONE',  ( 1.200000000000125855, 0.000000000000000000, 37.99999999999999289 ) ) ;
#265 = AXIS2_PLACEMENT_3D ( 'NONE', #198, #193, #1 ) ;
#266 = PERSON_AND_ORGANIZATION_ROLE ( 'creator' ) ;
#267 = ORIENTED_EDGE ( 'NONE', *, *, #25, .T. ) ;
#268 = CIRCLE ( 'NONE', #138, 0.5949999999999999734 ) ;
#269 = COORDINATED_UNIVERSAL_TIME_OFFSET ( 1, 0, .AHEAD. ) ;
#270 = EDGE_LOOP ( 'NONE', ( #230 ) ) ;
#271 = COORDINATED_UNIVERSAL_TIME_OFFSET ( 1, 0, .AHEAD. ) ;
#272 = CC_DESIGN_PERSON_AND_ORGANIZATION_ASSIGNMENT ( #189, #266, ( #91 ) ) ;
#273 = PERSON_AND_ORGANIZATION ( #116, #9 ) ;
#274 =( GEOMETRIC_REPRESENTATION_CONTEXT ( 3 ) GLOBAL_UNCERTAINTY_ASSIGNED_CONTEXT ( ( #86 ) ) GLOBAL_UNIT_ASSIGNED_CONTEXT ( ( #243, #103, #82 ) ) REPRESENTATION_CONTEXT ( 'NONE', 'WORKASPACE' ) );
#275 = EDGE_LOOP ( 'NONE', ( #236 ) ) ;
ENDSEC;
END-ISO-10303-21;
