ISO-10303-21;
HEADER;
FILE_DESCRIPTION (( 'STEP AP203' ),
    '1' );
FILE_NAME ('965989.step',
    '2023-09-27T05:46:09',
    ( '' ),
    ( '' ),
    'SwSTEP 2.0',
    'SolidWorks 2022',
    '' );
FILE_SCHEMA (( 'CONFIG_CONTROL_DESIGN' ));
ENDSEC;

DATA;
#1 = VERTEX_POINT ( 'NONE', #229 ) ;
#2 = CIRCLE ( 'NONE', #273, 0.5749999999999999556 ) ;
#3 = ORIENTED_EDGE ( 'NONE', *, *, #13, .T. ) ;
#4 = MECHANICAL_CONTEXT ( 'NONE', #88, 'mechanical' ) ;
#5 = PERSON_AND_ORGANIZATION ( #252, #28 ) ;
#6 = CC_DESIGN_PERSON_AND_ORGANIZATION_ASSIGNMENT ( #112, #199, ( #255 ) ) ;
#7 = ORIENTED_EDGE ( 'NONE', *, *, #82, .F. ) ;
#8 = DIRECTION ( 'NONE',  ( 0.000000000000000000, 0.000000000000000000, 1.000000000000000000 ) ) ;
#9 = CONICAL_SURFACE ( 'NONE', #35, 0.3849999999999999534, 1.047197551196589416 ) ;
#10 = DIRECTION ( 'NONE',  ( 1.000000000000000000, 0.000000000000000000, -3.491481338843133750E-15 ) ) ;
#11 = LOCAL_TIME ( 7, 46, 9.000000000000000000, #153 ) ;
#12 = PERSON_AND_ORGANIZATION ( #252, #28 ) ;
#13 = EDGE_CURVE ( 'NONE', #102, #102, #160, .T. ) ;
#14 = PERSON_AND_ORGANIZATION ( #252, #28 ) ;
#15 = DIRECTION ( 'NONE',  ( 3.491481338843133355E-15, -0.000000000000000000, 1.000000000000000000 ) ) ;
#16 = CYLINDRICAL_SURFACE ( 'NONE', #100, 0.3849999999999997868 ) ;
#17 = EDGE_CURVE ( 'NONE', #165, #165, #215, .T. ) ;
#18 = CYLINDRICAL_SURFACE ( 'NONE', #50, 0.5749999999999999556 ) ;
#19 = APPROVAL_PERSON_ORGANIZATION ( #12, #140, #53 ) ;
#20 = EDGE_LOOP ( 'NONE', ( #228 ) ) ;
#21 = FACE_OUTER_BOUND ( 'NONE', #137, .T. ) ;
#22 = CONICAL_SURFACE ( 'NONE', #240, 0.5749999999999999556, 1.047197551196589416 ) ;
#23 = AXIS2_PLACEMENT_3D ( 'NONE', #134, #139, #201 ) ;
#24 = CARTESIAN_POINT ( 'NONE',  ( 3.830034612618185459E-16, 0.000000000000000000, 0.1096965511460309961 ) ) ;
#25 = CARTESIAN_POINT ( 'NONE',  ( 0.3850000000000134981, 0.000000000000000000, 3.999999999999994671 ) ) ;
#26 = ORIENTED_EDGE ( 'NONE', *, *, #55, .T. ) ;
#27 = CALENDAR_DATE ( 2023, 27, 9 ) ;
#28 = ORGANIZATION ( 'UNSPECIFIED', 'UNSPECIFIED', '' ) ;
#29 = CC_DESIGN_PERSON_AND_ORGANIZATION_ASSIGNMENT ( #178, #92, ( #93 ) ) ;
#30 = DATE_AND_TIME ( #130, #168 ) ;
#31 = EDGE_LOOP ( 'NONE', ( #95 ) ) ;
#32 = CC_DESIGN_SECURITY_CLASSIFICATION ( #145, ( #93 ) ) ;
#33 = APPROVAL_DATE_TIME ( #30, #140 ) ;
#34 = DIRECTION ( 'NONE',  ( 1.000000000000000000, 0.000000000000000000, -3.469446951953614189E-15 ) ) ;
#35 = AXIS2_PLACEMENT_3D ( 'NONE', #197, #71, #10 ) ;
#36 = EDGE_LOOP ( 'NONE', ( #104 ) ) ;
#37 = CARTESIAN_POINT ( 'NONE',  ( 1.326762908760390423E-13, 0.000000000000000000, 38.00000000000000000 ) ) ;
#38 = DIRECTION ( 'NONE',  ( 3.491481338843133355E-15, -0.000000000000000000, 1.000000000000000000 ) ) ;
#39 = ADVANCED_FACE ( 'NONE', ( #68, #138 ), #18, .T. ) ;
#40 = CC_DESIGN_APPROVAL ( #140, ( #255 ) ) ;
#41 = DIRECTION ( 'NONE',  ( 3.491481338843133355E-15, -0.000000000000000000, 1.000000000000000000 ) ) ;
#42 = DIRECTION ( 'NONE',  ( 1.000000000000000000, 0.000000000000000000, -4.139418711049924123E-15 ) ) ;
#43 = CONICAL_SURFACE ( 'NONE', #188, 1.499999999999996225, 0.7853981633974504994 ) ;
#44 = APPROVAL ( #52, 'UNSPECIFIED' ) ;
#45 = EDGE_LOOP ( 'NONE', ( #26 ) ) ;
#46 = CARTESIAN_POINT ( 'NONE',  ( 1.316288464743861212E-13, 0.000000000000000000, 37.69999999999999574 ) ) ;
#47 = EDGE_LOOP ( 'NONE', ( #124 ) ) ;
#48 = ADVANCED_BREP_SHAPE_REPRESENTATION ( '965989', ( #133, #62 ), #122 ) ;
#49 = SHAPE_DEFINITION_REPRESENTATION ( #264, #48 ) ;
#50 = AXIS2_PLACEMENT_3D ( 'NONE', #220, #38, #202 ) ;
#51 = ORIENTED_EDGE ( 'NONE', *, *, #64, .T. ) ;
#52 = APPROVAL_STATUS ( 'not_yet_approved' ) ;
#53 = APPROVAL_ROLE ( '' ) ;
#54 = CARTESIAN_POINT ( 'NONE',  ( 2.895446770543031587E-14, 0.000000000000000000, 8.292889148026803880 ) ) ;
#55 = EDGE_CURVE ( 'NONE', #121, #121, #226, .T. ) ;
#56 = EDGE_LOOP ( 'NONE', ( #7 ) ) ;
#57 = CARTESIAN_POINT ( 'NONE',  ( 0.000000000000000000, 0.000000000000000000, 0.000000000000000000 ) ) ;
#58 = ORIENTED_EDGE ( 'NONE', *, *, #266, .T. ) ;
#59 = CARTESIAN_POINT ( 'NONE',  ( 8.241982781710162053E-16, 0.000000000000000000, 0.2360597689587268233 ) ) ;
#60 = VERTEX_POINT ( 'NONE', #224 ) ;
#61 = ADVANCED_FACE ( 'NONE', ( #183 ), #177, .F. ) ;
#62 = AXIS2_PLACEMENT_3D ( 'NONE', #98, #8, #196 ) ;
#63 = FACE_OUTER_BOUND ( 'NONE', #87, .T. ) ;
#64 = EDGE_CURVE ( 'NONE', #247, #247, #89, .T. ) ;
#65 = DATE_TIME_ROLE ( 'creation_date' ) ;
#66 = EDGE_LOOP ( 'NONE', ( #242 ) ) ;
#67 = CALENDAR_DATE ( 2023, 27, 9 ) ;
#68 = FACE_OUTER_BOUND ( 'NONE', #125, .T. ) ;
#69 = DATE_AND_TIME ( #180, #169 ) ;
#70 = DATE_TIME_ROLE ( 'classification_date' ) ;
#71 = DIRECTION ( 'NONE',  ( 3.491481338843133355E-15, -0.000000000000000000, 1.000000000000000000 ) ) ;
#72 = PLANE ( 'NONE',  #223 ) ;
#73 = DIRECTION ( 'NONE',  ( 1.000000000000000000, 0.000000000000000000, -3.491481338843133355E-15 ) ) ;
#74 = FACE_OUTER_BOUND ( 'NONE', #66, .T. ) ;
#75 = CARTESIAN_POINT ( 'NONE',  ( 1.500000000000029088, 0.000000000000000000, 8.292889148026798551 ) ) ;
#76 = CONICAL_SURFACE ( 'NONE', #114, 0.4190741737109293097, 0.2617993877991429130 ) ;
#77 = FACE_BOUND ( 'NONE', #36, .T. ) ;
#78 = ADVANCED_FACE ( 'NONE', ( #74 ), #72, .F. ) ;
#79 = DIRECTION ( 'NONE',  ( 3.491481338843133355E-15, -0.000000000000000000, 1.000000000000000000 ) ) ;
#80 = EDGE_LOOP ( 'NONE', ( #3 ) ) ;
#81 = FACE_OUTER_BOUND ( 'NONE', #172, .T. ) ;
#82 = EDGE_CURVE ( 'NONE', #166, #166, #267, .T. ) ;
#83 = AXIS2_PLACEMENT_3D ( 'NONE', #270, #154, #113 ) ;
#84 = VERTEX_POINT ( 'NONE', #123 ) ;
#85 = EDGE_LOOP ( 'NONE', ( #58 ) ) ;
#86 = APPROVAL_ROLE ( '' ) ;
#87 = EDGE_LOOP ( 'NONE', ( #51 ) ) ;
#88 = APPLICATION_CONTEXT ( 'configuration controlled 3d designs of mechanical parts and assemblies' ) ;
#89 = CIRCLE ( 'NONE', #83, 0.3849999999999995093 ) ;
#90 = FACE_BOUND ( 'NONE', #45, .T. ) ;
#91 = CC_DESIGN_DATE_AND_TIME_ASSIGNMENT ( #213, #65, ( #255 ) ) ;
#92 = PERSON_AND_ORGANIZATION_ROLE ( 'design_supplier' ) ;
#93 = PRODUCT_DEFINITION_FORMATION_WITH_SPECIFIED_SOURCE ( 'ANY', '', #234, .NOT_KNOWN. ) ;
#94 = DIRECTION ( 'NONE',  ( 3.491481338843133355E-15, -0.000000000000000000, 1.000000000000000000 ) ) ;
#95 = ORIENTED_EDGE ( 'NONE', *, *, #17, .T. ) ;
#96 = DIRECTION ( 'NONE',  ( 1.000000000000000000, 0.000000000000000000, -3.520136923654235052E-15 ) ) ;
#97 = CARTESIAN_POINT ( 'NONE',  ( 1.326762908760390423E-13, 1.199999999999993072, 38.00000000000000000 ) ) ;
#98 = CARTESIAN_POINT ( 'NONE',  ( 0.000000000000000000, 0.000000000000000000, 0.000000000000000000 ) ) ;
#99 = FACE_BOUND ( 'NONE', #174, .T. ) ;
#100 = AXIS2_PLACEMENT_3D ( 'NONE', #219, #265, #263 ) ;
#101 =( LENGTH_UNIT ( ) NAMED_UNIT ( * ) SI_UNIT ( .MILLI., .METRE. ) );
#102 = VERTEX_POINT ( 'NONE', #164 ) ;
#103 = EDGE_LOOP ( 'NONE', ( #171 ) ) ;
#104 = ORIENTED_EDGE ( 'NONE', *, *, #150, .T. ) ;
#105 = APPROVAL_DATE_TIME ( #129, #44 ) ;
#106 = APPLICATION_CONTEXT ( 'configuration controlled 3d designs of mechanical parts and assemblies' ) ;
#107 = DATE_AND_TIME ( #67, #11 ) ;
#108 = COORDINATED_UNIVERSAL_TIME_OFFSET ( 1, 0, .AHEAD. ) ;
#109 = PRODUCT_RELATED_PRODUCT_CATEGORY ( 'detail', '', ( #234 ) ) ;
#110 = FACE_OUTER_BOUND ( 'NONE', #208, .T. ) ;
#111 = AXIS2_PLACEMENT_3D ( 'NONE', #97, #185, #218 ) ;
#112 = PERSON_AND_ORGANIZATION ( #252, #28 ) ;
#113 = DIRECTION ( 'NONE',  ( 1.000000000000000000, 0.000000000000000000, -4.505775262277426926E-15 ) ) ;
#114 = AXIS2_PLACEMENT_3D ( 'NONE', #207, #41, #42 ) ;
#115 = DIRECTION ( 'NONE',  ( 1.000000000000000000, 0.000000000000000000, -5.782411586589390376E-15 ) ) ;
#116 = DIRECTION ( 'NONE',  ( 3.491481338843133355E-15, -0.000000000000000000, 1.000000000000000000 ) ) ;
#117 = DIRECTION ( 'NONE',  ( 3.491481338843133355E-15, -0.000000000000000000, 1.000000000000000000 ) ) ;
#118 = AXIS2_PLACEMENT_3D ( 'NONE', #37, #116, #203 ) ;
#119 = LOCAL_TIME ( 7, 46, 9.000000000000000000, #195 ) ;
#120 = CARTESIAN_POINT ( 'NONE',  ( 1.396592535537253342E-14, 0.000000000000000000, 4.000000000000000000 ) ) ;
#121 = VERTEX_POINT ( 'NONE', #192 ) ;
#122 =( GEOMETRIC_REPRESENTATION_CONTEXT ( 3 ) GLOBAL_UNCERTAINTY_ASSIGNED_CONTEXT ( ( #132 ) ) GLOBAL_UNIT_ASSIGNED_CONTEXT ( ( #101, #225, #209 ) ) REPRESENTATION_CONTEXT ( 'NONE', 'WORKASPACE' ) );
#123 = CARTESIAN_POINT ( 'NONE',  ( 0.5750000000000003997, 0.000000000000000000, 0.1263632178126938288 ) ) ;
#124 = ORIENTED_EDGE ( 'NONE', *, *, #13, .F. ) ;
#125 = EDGE_LOOP ( 'NONE', ( #210 ) ) ;
#126 = APPROVAL_STATUS ( 'not_yet_approved' ) ;
#127 = ORIENTED_EDGE ( 'NONE', *, *, #146, .T. ) ;
#128 = PERSON_AND_ORGANIZATION ( #252, #28 ) ;
#129 = DATE_AND_TIME ( #27, #119 ) ;
#130 = CALENDAR_DATE ( 2023, 27, 9 ) ;
#131 = CIRCLE ( 'NONE', #23, 0.4190741737109293097 ) ;
#132 = UNCERTAINTY_MEASURE_WITH_UNIT (LENGTH_MEASURE( 1.000000000000000082E-05 ), #101, 'distance_accuracy_value', 'NONE');
#133 = MANIFOLD_SOLID_BREP ( 'Corps-Déplacer/Copier1', #245 ) ;
#134 = CARTESIAN_POINT ( 'NONE',  ( 1.486958722148516871E-14, 0.000000000000000000, 4.258819045102516299 ) ) ;
#135 = DESIGN_CONTEXT ( 'detailed design', #106, 'design' ) ;
#136 = TOROIDAL_SURFACE ( 'NONE', #151, 1.384999999999999565, 1.000000000000000000 ) ;
#137 = EDGE_LOOP ( 'NONE', ( #232 ) ) ;
#138 = FACE_OUTER_BOUND ( 'NONE', #85, .T. ) ;
#139 = DIRECTION ( 'NONE',  ( 3.491481338843133355E-15, -0.000000000000000000, 1.000000000000000000 ) ) ;
#140 = APPROVAL ( #173, 'UNSPECIFIED' ) ;
#141 = CIRCLE ( 'NONE', #256, 0.5749999999999999556 ) ;
#142 = APPLICATION_PROTOCOL_DEFINITION ( 'international standard', 'config_control_design', 1994, #88 ) ;
#143 = FACE_OUTER_BOUND ( 'NONE', #56, .T. ) ;
#144 = AXIS2_PLACEMENT_3D ( 'NONE', #161, #243, #115 ) ;
#145 = SECURITY_CLASSIFICATION ( '', '', #231 ) ;
#146 = EDGE_CURVE ( 'NONE', #60, #60, #200, .T. ) ;
#147 = DIRECTION ( 'NONE',  ( -3.491481338843133355E-15, 0.000000000000000000, -1.000000000000000000 ) ) ;
#148 = DIRECTION ( 'NONE',  ( 1.000000000000000000, 0.000000000000000000, -3.488302641909884140E-15 ) ) ;
#149 = ORIENTED_EDGE ( 'NONE', *, *, #17, .F. ) ;
#150 = EDGE_CURVE ( 'NONE', #1, #1, #131, .T. ) ;
#151 = AXIS2_PLACEMENT_3D ( 'NONE', #120, #79, #274 ) ;
#152 = APPROVAL_DATE_TIME ( #107, #211 ) ;
#153 = COORDINATED_UNIVERSAL_TIME_OFFSET ( 1, 0, .AHEAD. ) ;
#154 = DIRECTION ( 'NONE',  ( 3.491481338843133355E-15, -0.000000000000000000, 1.000000000000000000 ) ) ;
#155 = PERSON_AND_ORGANIZATION_ROLE ( 'design_owner' ) ;
#156 = AXIS2_PLACEMENT_3D ( 'NONE', #182, #15, #204 ) ;
#157 = DIRECTION ( 'NONE',  ( 3.491481338843133355E-15, -0.000000000000000000, 1.000000000000000000 ) ) ;
#158 = ADVANCED_FACE ( 'NONE', ( #222, #181 ), #16, .T. ) ;
#159 = FACE_OUTER_BOUND ( 'NONE', #20, .T. ) ;
#160 = CIRCLE ( 'NONE', #233, 0.3850000000000000089 ) ;
#161 = CARTESIAN_POINT ( 'NONE',  ( 1.326762908760390423E-13, 0.000000000000000000, 38.00000000000000000 ) ) ;
#162 = ADVANCED_FACE ( 'NONE', ( #110, #90 ), #9, .T. ) ;
#163 = DIRECTION ( 'NONE',  ( 3.491481338843133355E-15, -0.000000000000000000, 1.000000000000000000 ) ) ;
#164 = CARTESIAN_POINT ( 'NONE',  ( 0.3850000000000008415, 0.000000000000000000, 0.2360597689587254633 ) ) ;
#165 = VERTEX_POINT ( 'NONE', #250 ) ;
#166 = VERTEX_POINT ( 'NONE', #75 ) ;
#167 = CARTESIAN_POINT ( 'NONE',  ( 4.411948169091976594E-16, 0.000000000000000000, 0.1263632178126958272 ) ) ;
#168 = LOCAL_TIME ( 7, 46, 9.000000000000000000, #212 ) ;
#169 = LOCAL_TIME ( 7, 46, 9.000000000000000000, #108 ) ;
#170 = CARTESIAN_POINT ( 'NONE',  ( 0.5750000000000003997, 0.000000000000000000, 0.1096965511460289838 ) ) ;
#171 = ORIENTED_EDGE ( 'NONE', *, *, #64, .F. ) ;
#172 = EDGE_LOOP ( 'NONE', ( #269 ) ) ;
#173 = APPROVAL_STATUS ( 'not_yet_approved' ) ;
#174 = EDGE_LOOP ( 'NONE', ( #251 ) ) ;
#175 = APPROVAL_PERSON_ORGANIZATION ( #128, #211, #86 ) ;
#176 = APPROVAL_PERSON_ORGANIZATION ( #260, #44, #236 ) ;
#177 = PLANE ( 'NONE',  #111 ) ;
#178 = PERSON_AND_ORGANIZATION ( #252, #28 ) ;
#179 = ADVANCED_FACE ( 'NONE', ( #239, #159 ), #241, .T. ) ;
#180 = CALENDAR_DATE ( 2023, 27, 9 ) ;
#181 = FACE_OUTER_BOUND ( 'NONE', #80, .T. ) ;
#182 = CARTESIAN_POINT ( 'NONE',  ( 0.000000000000000000, 0.000000000000000000, 0.000000000000000000 ) ) ;
#183 = FACE_OUTER_BOUND ( 'NONE', #248, .T. ) ;
#184 = CC_DESIGN_PERSON_AND_ORGANIZATION_ASSIGNMENT ( #5, #194, ( #145 ) ) ;
#185 = DIRECTION ( 'NONE',  ( -3.491481338843133355E-15, 0.000000000000000000, -1.000000000000000000 ) ) ;
#186 = DIRECTION ( 'NONE',  ( -3.491481338843133355E-15, 0.000000000000000000, -1.000000000000000000 ) ) ;
#187 = FACE_BOUND ( 'NONE', #47, .T. ) ;
#188 = AXIS2_PLACEMENT_3D ( 'NONE', #46, #186, #191 ) ;
#189 = DIRECTION ( 'NONE',  ( -1.000000000000000000, 0.000000000000000000, 3.488302641909884140E-15 ) ) ;
#190 = ADVANCED_FACE ( 'NONE', ( #99, #275 ), #43, .T. ) ;
#191 = DIRECTION ( 'NONE',  ( -1.000000000000000000, 0.000000000000000000, 4.625929269271497155E-15 ) ) ;
#192 = CARTESIAN_POINT ( 'NONE',  ( 0.3849999999999999534, 0.000000000000000000, -1.344220315454606263E-15 ) ) ;
#193 = LOCAL_TIME ( 7, 46, 9.000000000000000000, #253 ) ;
#194 = PERSON_AND_ORGANIZATION_ROLE ( 'classification_officer' ) ;
#195 = COORDINATED_UNIVERSAL_TIME_OFFSET ( 1, 0, .AHEAD. ) ;
#196 = DIRECTION ( 'NONE',  ( 1.000000000000000000, 0.000000000000000000, 0.000000000000000000 ) ) ;
#197 = CARTESIAN_POINT ( 'NONE',  ( 0.000000000000000000, 0.000000000000000000, 0.000000000000000000 ) ) ;
#198 = AXIS2_PLACEMENT_3D ( 'NONE', #238, #117, #258 ) ;
#199 = PERSON_AND_ORGANIZATION_ROLE ( 'creator' ) ;
#200 = CIRCLE ( 'NONE', #144, 1.199999999999993072 ) ;
#201 = DIRECTION ( 'NONE',  ( 1.000000000000000000, 0.000000000000000000, -4.139418711049924123E-15 ) ) ;
#202 = DIRECTION ( 'NONE',  ( 1.000000000000000000, 0.000000000000000000, 0.000000000000000000 ) ) ;
#203 = DIRECTION ( 'NONE',  ( 1.000000000000000000, 0.000000000000000000, -4.625929269271491633E-15 ) ) ;
#204 = DIRECTION ( 'NONE',  ( 1.000000000000000000, 0.000000000000000000, -3.491481338843133750E-15 ) ) ;
#205 = DIRECTION ( 'NONE',  ( 3.491481338843133355E-15, -0.000000000000000000, 1.000000000000000000 ) ) ;
#206 = VERTEX_POINT ( 'NONE', #170 ) ;
#207 = CARTESIAN_POINT ( 'NONE',  ( 1.486958722148516871E-14, 0.000000000000000000, 4.258819045102516299 ) ) ;
#208 = EDGE_LOOP ( 'NONE', ( #217 ) ) ;
#209 =( NAMED_UNIT ( * ) SI_UNIT ( $, .STERADIAN. ) SOLID_ANGLE_UNIT ( ) );
#210 = ORIENTED_EDGE ( 'NONE', *, *, #261, .F. ) ;
#211 = APPROVAL ( #126, 'UNSPECIFIED' ) ;
#212 = COORDINATED_UNIVERSAL_TIME_OFFSET ( 1, 0, .AHEAD. ) ;
#213 = DATE_AND_TIME ( #257, #193 ) ;
#214 = ADVANCED_FACE ( 'NONE', ( #21, #63 ), #136, .F. ) ;
#215 = CIRCLE ( 'NONE', #198, 1.499999999999996225 ) ;
#216 = APPLICATION_PROTOCOL_DEFINITION ( 'international standard', 'config_control_design', 1994, #106 ) ;
#217 = ORIENTED_EDGE ( 'NONE', *, *, #266, .F. ) ;
#218 = DIRECTION ( 'NONE',  ( -1.000000000000000000, 0.000000000000000000, 3.491481338843133355E-15 ) ) ;
#219 = CARTESIAN_POINT ( 'NONE',  ( 1.326762908760390423E-13, 0.000000000000000000, 38.00000000000000000 ) ) ;
#220 = CARTESIAN_POINT ( 'NONE',  ( 1.326762908760390423E-13, 0.000000000000000000, 38.00000000000000000 ) ) ;
#221 = ADVANCED_FACE ( 'NONE', ( #187, #81 ), #22, .T. ) ;
#222 = FACE_OUTER_BOUND ( 'NONE', #103, .T. ) ;
#223 = AXIS2_PLACEMENT_3D ( 'NONE', #57, #163, #73 ) ;
#224 = CARTESIAN_POINT ( 'NONE',  ( 1.200000000000125855, 0.000000000000000000, 37.99999999999999289 ) ) ;
#225 =( NAMED_UNIT ( * ) PLANE_ANGLE_UNIT ( ) SI_UNIT ( $, .RADIAN. ) );
#226 = CIRCLE ( 'NONE', #156, 0.3849999999999999534 ) ;
#227 = CC_DESIGN_APPROVAL ( #211, ( #93 ) ) ;
#228 = ORIENTED_EDGE ( 'NONE', *, *, #82, .T. ) ;
#229 = CARTESIAN_POINT ( 'NONE',  ( 0.4190741737109441312, 0.000000000000000000, 4.258819045102514522 ) ) ;
#230 = CC_DESIGN_PERSON_AND_ORGANIZATION_ASSIGNMENT ( #14, #259, ( #93 ) ) ;
#231 = SECURITY_CLASSIFICATION_LEVEL ( 'unclassified' ) ;
#232 = ORIENTED_EDGE ( 'NONE', *, *, #150, .F. ) ;
#233 = AXIS2_PLACEMENT_3D ( 'NONE', #59, #157, #96 ) ;
#234 = PRODUCT ( '965989', '965989', '', ( #4 ) ) ;
#235 = CC_DESIGN_PERSON_AND_ORGANIZATION_ASSIGNMENT ( #237, #155, ( #234 ) ) ;
#236 = APPROVAL_ROLE ( '' ) ;
#237 = PERSON_AND_ORGANIZATION ( #252, #28 ) ;
#238 = CARTESIAN_POINT ( 'NONE',  ( 1.316288464743861212E-13, 0.000000000000000000, 37.69999999999999574 ) ) ;
#239 = FACE_OUTER_BOUND ( 'NONE', #254, .T. ) ;
#240 = AXIS2_PLACEMENT_3D ( 'NONE', #271, #147, #189 ) ;
#241 = CYLINDRICAL_SURFACE ( 'NONE', #118, 1.499999999999998002 ) ;
#242 = ORIENTED_EDGE ( 'NONE', *, *, #55, .F. ) ;
#243 = DIRECTION ( 'NONE',  ( 3.491481338843133355E-15, -0.000000000000000000, 1.000000000000000000 ) ) ;
#244 = DIRECTION ( 'NONE',  ( 1.000000000000000000, 0.000000000000000000, -3.488302641909884140E-15 ) ) ;
#245 = CLOSED_SHELL ( 'NONE', ( #78, #162, #39, #221, #158, #190, #61, #214, #249, #179 ) ) ;
#246 = CC_DESIGN_DATE_AND_TIME_ASSIGNMENT ( #69, #70, ( #145 ) ) ;
#247 = VERTEX_POINT ( 'NONE', #25 ) ;
#248 = EDGE_LOOP ( 'NONE', ( #127 ) ) ;
#249 = ADVANCED_FACE ( 'NONE', ( #143, #77 ), #76, .T. ) ;
#250 = CARTESIAN_POINT ( 'NONE',  ( 1.500000000000127676, 0.000000000000000000, 37.69999999999998863 ) ) ;
#251 = ORIENTED_EDGE ( 'NONE', *, *, #146, .F. ) ;
#252 = PERSON ( 'UNSPECIFIED', 'UNSPECIFIED', 'UNSPECIFIED', ('UNSPECIFIED'), ('UNSPECIFIED'), ('UNSPECIFIED') ) ;
#253 = COORDINATED_UNIVERSAL_TIME_OFFSET ( 1, 0, .AHEAD. ) ;
#254 = EDGE_LOOP ( 'NONE', ( #149 ) ) ;
#255 = PRODUCT_DEFINITION ( 'UNKNOWN', '', #93, #135 ) ;
#256 = AXIS2_PLACEMENT_3D ( 'NONE', #167, #205, #244 ) ;
#257 = CALENDAR_DATE ( 2023, 27, 9 ) ;
#258 = DIRECTION ( 'NONE',  ( 1.000000000000000000, 0.000000000000000000, -4.625929269271497155E-15 ) ) ;
#259 = PERSON_AND_ORGANIZATION_ROLE ( 'creator' ) ;
#260 = PERSON_AND_ORGANIZATION ( #252, #28 ) ;
#261 = EDGE_CURVE ( 'NONE', #84, #84, #141, .T. ) ;
#262 = AXIS2_PLACEMENT_3D ( 'NONE', #54, #94, #34 ) ;
#263 = DIRECTION ( 'NONE',  ( 1.000000000000000000, 0.000000000000000000, 0.000000000000000000 ) ) ;
#264 = PRODUCT_DEFINITION_SHAPE ( 'NONE', 'NONE',  #255 ) ;
#265 = DIRECTION ( 'NONE',  ( 3.491481338843133355E-15, -0.000000000000000000, 1.000000000000000000 ) ) ;
#266 = EDGE_CURVE ( 'NONE', #206, #206, #2, .T. ) ;
#267 = CIRCLE ( 'NONE', #262, 1.500000000000000000 ) ;
#268 = CC_DESIGN_APPROVAL ( #44, ( #145 ) ) ;
#269 = ORIENTED_EDGE ( 'NONE', *, *, #261, .T. ) ;
#270 = CARTESIAN_POINT ( 'NONE',  ( 1.396592535537252080E-14, 0.000000000000000000, 3.999999999999996447 ) ) ;
#271 = CARTESIAN_POINT ( 'NONE',  ( 4.411948169091976594E-16, 0.000000000000000000, 0.1263632178126958272 ) ) ;
#272 = DIRECTION ( 'NONE',  ( 3.491481338843133355E-15, -0.000000000000000000, 1.000000000000000000 ) ) ;
#273 = AXIS2_PLACEMENT_3D ( 'NONE', #24, #272, #148 ) ;
#274 = DIRECTION ( 'NONE',  ( 1.000000000000000000, 0.000000000000000000, -3.491481338843133355E-15 ) ) ;
#275 = FACE_OUTER_BOUND ( 'NONE', #31, .T. ) ;
ENDSEC;
END-ISO-10303-21;
