ISO-10303-21;
HEADER;
FILE_DESCRIPTION (( 'STEP AP203' ),
    '1' );
FILE_NAME ('965988.step',
    '2023-09-27T05:46:09',
    ( '' ),
    ( '' ),
    'SwSTEP 2.0',
    'SolidWorks 2022',
    '' );
FILE_SCHEMA (( 'CONFIG_CONTROL_DESIGN' ));
ENDSEC;

DATA;
#1 = EDGE_CURVE ( 'NONE', #193, #193, #229, .T. ) ;
#2 = LOCAL_TIME ( 7, 46, 9.000000000000000000, #260 ) ;
#3 = EDGE_LOOP ( 'NONE', ( #43 ) ) ;
#4 = UNCERTAINTY_MEASURE_WITH_UNIT (LENGTH_MEASURE( 1.000000000000000082E-05 ), #129, 'distance_accuracy_value', 'NONE');
#5 = EDGE_LOOP ( 'NONE', ( #21 ) ) ;
#6 = ADVANCED_FACE ( 'NONE', ( #209, #226 ), #68, .T. ) ;
#7 = APPLICATION_PROTOCOL_DEFINITION ( 'international standard', 'config_control_design', 1994, #57 ) ;
#8 = AXIS2_PLACEMENT_3D ( 'NONE', #60, #156, #101 ) ;
#9 = SECURITY_CLASSIFICATION_LEVEL ( 'unclassified' ) ;
#10 = EDGE_CURVE ( 'NONE', #11, #11, #117, .T. ) ;
#11 = VERTEX_POINT ( 'NONE', #170 ) ;
#12 = APPROVAL_ROLE ( '' ) ;
#13 = APPLICATION_PROTOCOL_DEFINITION ( 'international standard', 'config_control_design', 1994, #171 ) ;
#14 = APPROVAL_PERSON_ORGANIZATION ( #214, #18, #32 ) ;
#15 = FACE_OUTER_BOUND ( 'NONE', #46, .T. ) ;
#16 = CYLINDRICAL_SURFACE ( 'NONE', #168, 0.3199999999999997291 ) ;
#17 = APPROVAL_PERSON_ORGANIZATION ( #196, #267, #258 ) ;
#18 = APPROVAL ( #189, 'UNSPECIFIED' ) ;
#19 = EDGE_LOOP ( 'NONE', ( #125 ) ) ;
#20 = DIRECTION ( 'NONE',  ( 1.000000000000000000, 0.000000000000000000, -3.491481338843133355E-15 ) ) ;
#21 = ORIENTED_EDGE ( 'NONE', *, *, #221, .F. ) ;
#22 = FACE_OUTER_BOUND ( 'NONE', #139, .T. ) ;
#23 = CARTESIAN_POINT ( 'NONE',  ( 0.000000000000000000, 0.000000000000000000, 0.000000000000000000 ) ) ;
#24 = ORIENTED_EDGE ( 'NONE', *, *, #53, .F. ) ;
#25 = CLOSED_SHELL ( 'NONE', ( #120, #272, #6, #38, #88, #114, #155, #250, #71, #58 ) ) ;
#26 = CARTESIAN_POINT ( 'NONE',  ( 2.980144277919601707E-14, 0.000000000000000000, 8.535472450518787113 ) ) ;
#27 = VERTEX_POINT ( 'NONE', #130 ) ;
#28 = DATE_TIME_ROLE ( 'creation_date' ) ;
#29 = DATE_AND_TIME ( #147, #208 ) ;
#30 = DIRECTION ( 'NONE',  ( 3.491481338843133355E-15, -0.000000000000000000, 1.000000000000000000 ) ) ;
#31 = PERSON_AND_ORGANIZATION ( #232, #234 ) ;
#32 = APPROVAL_ROLE ( '' ) ;
#33 = FACE_OUTER_BOUND ( 'NONE', #140, .T. ) ;
#34 = DIRECTION ( 'NONE',  ( 1.000000000000000000, 0.000000000000000000, -2.710505431213764635E-15 ) ) ;
#35 = LOCAL_TIME ( 7, 46, 9.000000000000000000, #238 ) ;
#36 = EDGE_CURVE ( 'NONE', #94, #94, #274, .T. ) ;
#37 = CARTESIAN_POINT ( 'NONE',  ( 0.000000000000000000, 0.000000000000000000, 0.000000000000000000 ) ) ;
#38 = ADVANCED_FACE ( 'NONE', ( #211, #22 ), #183, .T. ) ;
#39 = EDGE_LOOP ( 'NONE', ( #205 ) ) ;
#40 = PLANE ( 'NONE',  #84 ) ;
#41 = EDGE_LOOP ( 'NONE', ( #122 ) ) ;
#42 = AXIS2_PLACEMENT_3D ( 'NONE', #26, #245, #64 ) ;
#43 = ORIENTED_EDGE ( 'NONE', *, *, #159, .F. ) ;
#44 = DIRECTION ( 'NONE',  ( -1.000000000000000000, 0.000000000000000000, 3.510749891857823168E-15 ) ) ;
#45 = CC_DESIGN_PERSON_AND_ORGANIZATION_ASSIGNMENT ( #77, #74, ( #149 ) ) ;
#46 = EDGE_LOOP ( 'NONE', ( #233 ) ) ;
#47 = PERSON_AND_ORGANIZATION ( #232, #234 ) ;
#48 = CARTESIAN_POINT ( 'NONE',  ( 0.000000000000000000, 0.000000000000000000, 0.000000000000000000 ) ) ;
#49 = COORDINATED_UNIVERSAL_TIME_OFFSET ( 1, 0, .AHEAD. ) ;
#50 = PRODUCT_DEFINITION_SHAPE ( 'NONE', 'NONE',  #264 ) ;
#51 = DATE_AND_TIME ( #95, #2 ) ;
#52 = DIRECTION ( 'NONE',  ( 1.000000000000000000, 0.000000000000000000, -3.491481338843134144E-15 ) ) ;
#53 = EDGE_CURVE ( 'NONE', #73, #73, #121, .T. ) ;
#54 = AXIS2_PLACEMENT_3D ( 'NONE', #96, #222, #34 ) ;
#55 =( GEOMETRIC_REPRESENTATION_CONTEXT ( 3 ) GLOBAL_UNCERTAINTY_ASSIGNED_CONTEXT ( ( #4 ) ) GLOBAL_UNIT_ASSIGNED_CONTEXT ( ( #129, #239, #195 ) ) REPRESENTATION_CONTEXT ( 'NONE', 'WORKASPACE' ) );
#56 = APPROVAL_DATE_TIME ( #173, #236 ) ;
#57 = APPLICATION_CONTEXT ( 'configuration controlled 3d designs of mechanical parts and assemblies' ) ;
#58 = ADVANCED_FACE ( 'NONE', ( #59, #65 ), #182, .T. ) ;
#59 = FACE_OUTER_BOUND ( 'NONE', #187, .T. ) ;
#60 = CARTESIAN_POINT ( 'NONE',  ( 1.316288464743861212E-13, 0.000000000000000000, 37.69999999999999574 ) ) ;
#61 = EDGE_CURVE ( 'NONE', #190, #190, #194, .T. ) ;
#62 = ORIENTED_EDGE ( 'NONE', *, *, #221, .T. ) ;
#63 = DIRECTION ( 'NONE',  ( 3.491481338843133355E-15, -0.000000000000000000, 1.000000000000000000 ) ) ;
#64 = DIRECTION ( 'NONE',  ( 1.000000000000000000, 0.000000000000000000, -3.469446951953614189E-15 ) ) ;
#65 = FACE_OUTER_BOUND ( 'NONE', #19, .T. ) ;
#66 = DIRECTION ( 'NONE',  ( 3.491481338843133355E-15, -0.000000000000000000, 1.000000000000000000 ) ) ;
#67 = CC_DESIGN_DATE_AND_TIME_ASSIGNMENT ( #29, #150, ( #244 ) ) ;
#68 = CYLINDRICAL_SURFACE ( 'NONE', #256, 0.5250000000000001332 ) ;
#69 = CIRCLE ( 'NONE', #99, 0.5250000000000001332 ) ;
#70 = CARTESIAN_POINT ( 'NONE',  ( 1.326762908760390423E-13, 0.000000000000000000, 38.00000000000000000 ) ) ;
#71 = ADVANCED_FACE ( 'NONE', ( #87, #158 ), #225, .T. ) ;
#72 = ORIENTED_EDGE ( 'NONE', *, *, #230, .T. ) ;
#73 = VERTEX_POINT ( 'NONE', #81 ) ;
#74 = PERSON_AND_ORGANIZATION_ROLE ( 'design_supplier' ) ;
#75 = FACE_OUTER_BOUND ( 'NONE', #161, .T. ) ;
#76 = VERTEX_POINT ( 'NONE', #78 ) ;
#77 = PERSON_AND_ORGANIZATION ( #232, #234 ) ;
#78 = CARTESIAN_POINT ( 'NONE',  ( 0.3200000000000135514, 0.000000000000000000, 3.999999999999995559 ) ) ;
#79 = AXIS2_PLACEMENT_3D ( 'NONE', #132, #115, #116 ) ;
#80 = DIRECTION ( 'NONE',  ( 3.491481338843133355E-15, -0.000000000000000000, 1.000000000000000000 ) ) ;
#81 = CARTESIAN_POINT ( 'NONE',  ( 0.3200000000000009504, 0.000000000000000000, 0.2617136103677449865 ) ) ;
#82 = DIRECTION ( 'NONE',  ( 1.000000000000000000, 0.000000000000000000, -3.510749891857823168E-15 ) ) ;
#83 = FACE_OUTER_BOUND ( 'NONE', #5, .T. ) ;
#84 = AXIS2_PLACEMENT_3D ( 'NONE', #204, #138, #249 ) ;
#85 = LOCAL_TIME ( 7, 46, 9.000000000000000000, #112 ) ;
#86 = EDGE_LOOP ( 'NONE', ( #89 ) ) ;
#87 = FACE_OUTER_BOUND ( 'NONE', #213, .T. ) ;
#88 = ADVANCED_FACE ( 'NONE', ( #83, #241 ), #16, .T. ) ;
#89 = ORIENTED_EDGE ( 'NONE', *, *, #53, .T. ) ;
#90 = APPROVAL_STATUS ( 'not_yet_approved' ) ;
#91 = AXIS2_PLACEMENT_3D ( 'NONE', #269, #63, #20 ) ;
#92 = PERSON_AND_ORGANIZATION_ROLE ( 'design_owner' ) ;
#93 = PERSON_AND_ORGANIZATION ( #232, #234 ) ;
#94 = VERTEX_POINT ( 'NONE', #197 ) ;
#95 = CALENDAR_DATE ( 2023, 27, 9 ) ;
#96 = CARTESIAN_POINT ( 'NONE',  ( 1.396592535537252080E-14, 0.000000000000000000, 3.999999999999996447 ) ) ;
#97 = CARTESIAN_POINT ( 'NONE',  ( 1.396592535537253342E-14, 0.000000000000000000, 4.000000000000000000 ) ) ;
#98 = EDGE_LOOP ( 'NONE', ( #178 ) ) ;
#99 = AXIS2_PLACEMENT_3D ( 'NONE', #266, #192, #82 ) ;
#100 = DIRECTION ( 'NONE',  ( 1.000000000000000000, 0.000000000000000000, 0.000000000000000000 ) ) ;
#101 = DIRECTION ( 'NONE',  ( -1.000000000000000000, 0.000000000000000000, 4.625929269271497155E-15 ) ) ;
#102 = PRODUCT_RELATED_PRODUCT_CATEGORY ( 'detail', '', ( #135 ) ) ;
#103 = AXIS2_PLACEMENT_3D ( 'NONE', #246, #273, #118 ) ;
#104 = EDGE_LOOP ( 'NONE', ( #164 ) ) ;
#105 = CONICAL_SURFACE ( 'NONE', #165, 0.3199999999999999512, 1.047197551196606513 ) ;
#106 = CARTESIAN_POINT ( 'NONE',  ( 5.005276100956706904E-16, 0.000000000000000000, 0.1433568051838751689 ) ) ;
#107 = ORIENTED_EDGE ( 'NONE', *, *, #212, .F. ) ;
#108 = CARTESIAN_POINT ( 'NONE',  ( 1.326762908760390423E-13, 0.000000000000000000, 38.00000000000000000 ) ) ;
#109 = CC_DESIGN_PERSON_AND_ORGANIZATION_ASSIGNMENT ( #47, #92, ( #135 ) ) ;
#110 = CALENDAR_DATE ( 2023, 27, 9 ) ;
#111 = AXIS2_PLACEMENT_3D ( 'NONE', #224, #223, #136 ) ;
#112 = COORDINATED_UNIVERSAL_TIME_OFFSET ( 1, 0, .AHEAD. ) ;
#113 = PERSON_AND_ORGANIZATION ( #232, #234 ) ;
#114 = ADVANCED_FACE ( 'NONE', ( #141, #15 ), #179, .T. ) ;
#115 = DIRECTION ( 'NONE',  ( 3.491481338843133355E-15, -0.000000000000000000, 1.000000000000000000 ) ) ;
#116 = DIRECTION ( 'NONE',  ( 1.000000000000000000, 0.000000000000000000, -4.625929269271497155E-15 ) ) ;
#117 = CIRCLE ( 'NONE', #216, 0.3540741737109293075 ) ;
#118 = DIRECTION ( 'NONE',  ( 1.000000000000000000, 0.000000000000000000, -2.449661122972862797E-15 ) ) ;
#119 = EDGE_LOOP ( 'NONE', ( #24 ) ) ;
#120 = ADVANCED_FACE ( 'NONE', ( #181 ), #243, .F. ) ;
#121 = CIRCLE ( 'NONE', #148, 0.3200000000000000067 ) ;
#122 = ORIENTED_EDGE ( 'NONE', *, *, #10, .F. ) ;
#123 = DIRECTION ( 'NONE',  ( 1.000000000000000000, 0.000000000000000000, -3.484935554417691866E-15 ) ) ;
#124 = DESIGN_CONTEXT ( 'detailed design', #57, 'design' ) ;
#125 = ORIENTED_EDGE ( 'NONE', *, *, #1, .T. ) ;
#126 = PERSON_AND_ORGANIZATION_ROLE ( 'classification_officer' ) ;
#127 = DATE_AND_TIME ( #131, #217 ) ;
#128 = DIRECTION ( 'NONE',  ( 3.491481338843133355E-15, -0.000000000000000000, 1.000000000000000000 ) ) ;
#129 =( LENGTH_UNIT ( ) NAMED_UNIT ( * ) SI_UNIT ( .MILLI., .METRE. ) );
#130 = CARTESIAN_POINT ( 'NONE',  ( 1.200000000000125855, 0.000000000000000000, 37.99999999999999289 ) ) ;
#131 = CALENDAR_DATE ( 2023, 27, 9 ) ;
#132 = CARTESIAN_POINT ( 'NONE',  ( 1.316288464743861212E-13, 0.000000000000000000, 37.69999999999999574 ) ) ;
#133 = AXIS2_PLACEMENT_3D ( 'NONE', #106, #185, #44 ) ;
#134 = APPROVAL_DATE_TIME ( #51, #18 ) ;
#135 = PRODUCT ( '965988', '965988', '', ( #162 ) ) ;
#136 = DIRECTION ( 'NONE',  ( 1.000000000000000000, 0.000000000000000000, -4.625929269271491633E-15 ) ) ;
#137 = CC_DESIGN_PERSON_AND_ORGANIZATION_ASSIGNMENT ( #220, #172, ( #264 ) ) ;
#138 = DIRECTION ( 'NONE',  ( -3.491481338843133355E-15, 0.000000000000000000, -1.000000000000000000 ) ) ;
#139 = EDGE_LOOP ( 'NONE', ( #72 ) ) ;
#140 = EDGE_LOOP ( 'NONE', ( #160 ) ) ;
#141 = FACE_BOUND ( 'NONE', #3, .T. ) ;
#142 = CARTESIAN_POINT ( 'NONE',  ( 1.486958722148516871E-14, 0.000000000000000000, 4.258819045102516299 ) ) ;
#143 = CIRCLE ( 'NONE', #54, 0.3199999999999995626 ) ;
#144 = CARTESIAN_POINT ( 'NONE',  ( 4.132405766245777626E-16, 0.000000000000000000, 0.1183568051838709834 ) ) ;
#145 = CC_DESIGN_PERSON_AND_ORGANIZATION_ASSIGNMENT ( #93, #126, ( #244 ) ) ;
#146 = ORIENTED_EDGE ( 'NONE', *, *, #10, .T. ) ;
#147 = CALENDAR_DATE ( 2023, 27, 9 ) ;
#148 = AXIS2_PLACEMENT_3D ( 'NONE', #191, #80, #206 ) ;
#149 = PRODUCT_DEFINITION_FORMATION_WITH_SPECIFIED_SOURCE ( 'ANY', '', #135, .NOT_KNOWN. ) ;
#150 = DATE_TIME_ROLE ( 'classification_date' ) ;
#151 = VERTEX_POINT ( 'NONE', #237 ) ;
#152 = APPROVAL_STATUS ( 'not_yet_approved' ) ;
#153 = TOROIDAL_SURFACE ( 'NONE', #201, 1.319999999999999618, 1.000000000000000000 ) ;
#154 = FACE_OUTER_BOUND ( 'NONE', #41, .T. ) ;
#155 = ADVANCED_FACE ( 'NONE', ( #227 ), #40, .F. ) ;
#156 = DIRECTION ( 'NONE',  ( -3.491481338843133355E-15, 0.000000000000000000, -1.000000000000000000 ) ) ;
#157 = DIRECTION ( 'NONE',  ( 3.491481338843133355E-15, -0.000000000000000000, 1.000000000000000000 ) ) ;
#158 = FACE_BOUND ( 'NONE', #254, .T. ) ;
#159 = EDGE_CURVE ( 'NONE', #27, #27, #251, .T. ) ;
#160 = ORIENTED_EDGE ( 'NONE', *, *, #36, .F. ) ;
#161 = EDGE_LOOP ( 'NONE', ( #62 ) ) ;
#162 = MECHANICAL_CONTEXT ( 'NONE', #171, 'mechanical' ) ;
#163 = CIRCLE ( 'NONE', #79, 1.499999999999996225 ) ;
#164 = ORIENTED_EDGE ( 'NONE', *, *, #159, .T. ) ;
#165 = AXIS2_PLACEMENT_3D ( 'NONE', #48, #263, #52 ) ;
#166 = DATE_AND_TIME ( #235, #35 ) ;
#167 = COORDINATED_UNIVERSAL_TIME_OFFSET ( 1, 0, .AHEAD. ) ;
#168 = AXIS2_PLACEMENT_3D ( 'NONE', #271, #199, #100 ) ;
#169 = CC_DESIGN_APPROVAL ( #18, ( #264 ) ) ;
#170 = CARTESIAN_POINT ( 'NONE',  ( 0.3540741737109441845, 0.000000000000000000, 4.258819045102515410 ) ) ;
#171 = APPLICATION_CONTEXT ( 'configuration controlled 3d designs of mechanical parts and assemblies' ) ;
#172 = PERSON_AND_ORGANIZATION_ROLE ( 'creator' ) ;
#173 = DATE_AND_TIME ( #110, #85 ) ;
#174 = CARTESIAN_POINT ( 'NONE',  ( 1.500000000000127676, 0.000000000000000000, 37.69999999999998863 ) ) ;
#175 = SHAPE_DEFINITION_REPRESENTATION ( #50, #210 ) ;
#176 = FACE_BOUND ( 'NONE', #39, .T. ) ;
#177 = CC_DESIGN_APPROVAL ( #267, ( #149 ) ) ;
#178 = ORIENTED_EDGE ( 'NONE', *, *, #61, .F. ) ;
#179 = CONICAL_SURFACE ( 'NONE', #8, 1.499999999999996225, 0.7853981633974504994 ) ;
#180 = APPROVAL_PERSON_ORGANIZATION ( #113, #236, #12 ) ;
#181 = FACE_OUTER_BOUND ( 'NONE', #98, .T. ) ;
#182 = CYLINDRICAL_SURFACE ( 'NONE', #111, 1.499999999999998002 ) ;
#183 = CONICAL_SURFACE ( 'NONE', #133, 0.5250000000000001332, 1.047197551196606513 ) ;
#184 = CC_DESIGN_APPROVAL ( #236, ( #244 ) ) ;
#185 = DIRECTION ( 'NONE',  ( -3.491481338843133355E-15, 0.000000000000000000, -1.000000000000000000 ) ) ;
#186 = DIRECTION ( 'NONE',  ( 0.000000000000000000, 0.000000000000000000, 1.000000000000000000 ) ) ;
#187 = EDGE_LOOP ( 'NONE', ( #107 ) ) ;
#188 = EDGE_LOOP ( 'NONE', ( #203 ) ) ;
#189 = APPROVAL_STATUS ( 'not_yet_approved' ) ;
#190 = VERTEX_POINT ( 'NONE', #262 ) ;
#191 = CARTESIAN_POINT ( 'NONE',  ( 9.137681867202484530E-16, 0.000000000000000000, 0.2617136103677461523 ) ) ;
#192 = DIRECTION ( 'NONE',  ( 3.491481338843133355E-15, -0.000000000000000000, 1.000000000000000000 ) ) ;
#193 = VERTEX_POINT ( 'NONE', #265 ) ;
#194 = CIRCLE ( 'NONE', #257, 0.3199999999999999512 ) ;
#195 =( NAMED_UNIT ( * ) SI_UNIT ( $, .STERADIAN. ) SOLID_ANGLE_UNIT ( ) );
#196 = PERSON_AND_ORGANIZATION ( #232, #234 ) ;
#197 = CARTESIAN_POINT ( 'NONE',  ( 0.5250000000000005773, 0.000000000000000000, 0.1183568051838691515 ) ) ;
#198 = CC_DESIGN_DATE_AND_TIME_ASSIGNMENT ( #127, #28, ( #264 ) ) ;
#199 = DIRECTION ( 'NONE',  ( 3.491481338843133355E-15, -0.000000000000000000, 1.000000000000000000 ) ) ;
#200 = DIRECTION ( 'NONE',  ( 1.000000000000000000, 0.000000000000000000, -3.491481338843134144E-15 ) ) ;
#201 = AXIS2_PLACEMENT_3D ( 'NONE', #97, #30, #218 ) ;
#202 = CC_DESIGN_SECURITY_CLASSIFICATION ( #244, ( #149 ) ) ;
#203 = ORIENTED_EDGE ( 'NONE', *, *, #230, .F. ) ;
#204 = CARTESIAN_POINT ( 'NONE',  ( 1.326762908760390423E-13, 1.199999999999993072, 38.00000000000000000 ) ) ;
#205 = ORIENTED_EDGE ( 'NONE', *, *, #61, .T. ) ;
#206 = DIRECTION ( 'NONE',  ( 1.000000000000000000, 0.000000000000000000, -3.557538378468061424E-15 ) ) ;
#207 = DIRECTION ( 'NONE',  ( 1.000000000000000000, 0.000000000000000000, 0.000000000000000000 ) ) ;
#208 = LOCAL_TIME ( 7, 46, 9.000000000000000000, #49 ) ;
#209 = FACE_OUTER_BOUND ( 'NONE', #188, .T. ) ;
#210 = ADVANCED_BREP_SHAPE_REPRESENTATION ( '965988', ( #219, #252 ), #55 ) ;
#211 = FACE_BOUND ( 'NONE', #119, .T. ) ;
#212 = EDGE_CURVE ( 'NONE', #259, #259, #163, .T. ) ;
#213 = EDGE_LOOP ( 'NONE', ( #270 ) ) ;
#214 = PERSON_AND_ORGANIZATION ( #232, #234 ) ;
#215 = APPROVAL_DATE_TIME ( #166, #267 ) ;
#216 = AXIS2_PLACEMENT_3D ( 'NONE', #142, #275, #228 ) ;
#217 = LOCAL_TIME ( 7, 46, 9.000000000000000000, #167 ) ;
#218 = DIRECTION ( 'NONE',  ( 1.000000000000000000, 0.000000000000000000, -3.491481338843133355E-15 ) ) ;
#219 = MANIFOLD_SOLID_BREP ( 'Corps-Déplacer/Copier1', #25 ) ;
#220 = PERSON_AND_ORGANIZATION ( #232, #234 ) ;
#221 = EDGE_CURVE ( 'NONE', #76, #76, #143, .T. ) ;
#222 = DIRECTION ( 'NONE',  ( 3.491481338843133355E-15, -0.000000000000000000, 1.000000000000000000 ) ) ;
#223 = DIRECTION ( 'NONE',  ( 3.491481338843133355E-15, -0.000000000000000000, 1.000000000000000000 ) ) ;
#224 = CARTESIAN_POINT ( 'NONE',  ( 1.326762908760390423E-13, 0.000000000000000000, 38.00000000000000000 ) ) ;
#225 = CONICAL_SURFACE ( 'NONE', #103, 0.3540741737109293075, 0.2617993877991428575 ) ;
#226 = FACE_OUTER_BOUND ( 'NONE', #231, .T. ) ;
#227 = FACE_OUTER_BOUND ( 'NONE', #104, .T. ) ;
#228 = DIRECTION ( 'NONE',  ( 1.000000000000000000, 0.000000000000000000, -2.449661122972862797E-15 ) ) ;
#229 = CIRCLE ( 'NONE', #42, 1.500000000000000000 ) ;
#230 = EDGE_CURVE ( 'NONE', #151, #151, #69, .T. ) ;
#231 = EDGE_LOOP ( 'NONE', ( #247 ) ) ;
#232 = PERSON ( 'UNSPECIFIED', 'UNSPECIFIED', 'UNSPECIFIED', ('UNSPECIFIED'), ('UNSPECIFIED'), ('UNSPECIFIED') ) ;
#233 = ORIENTED_EDGE ( 'NONE', *, *, #212, .T. ) ;
#234 = ORGANIZATION ( 'UNSPECIFIED', 'UNSPECIFIED', '' ) ;
#235 = CALENDAR_DATE ( 2023, 27, 9 ) ;
#236 = APPROVAL ( #152, 'UNSPECIFIED' ) ;
#237 = CARTESIAN_POINT ( 'NONE',  ( 0.5250000000000006883, 0.000000000000000000, 0.1433568051838733370 ) ) ;
#238 = COORDINATED_UNIVERSAL_TIME_OFFSET ( 1, 0, .AHEAD. ) ;
#239 =( NAMED_UNIT ( * ) PLANE_ANGLE_UNIT ( ) SI_UNIT ( $, .RADIAN. ) );
#240 = AXIS2_PLACEMENT_3D ( 'NONE', #144, #253, #123 ) ;
#241 = FACE_OUTER_BOUND ( 'NONE', #86, .T. ) ;
#242 = CC_DESIGN_PERSON_AND_ORGANIZATION_ASSIGNMENT ( #31, #255, ( #149 ) ) ;
#243 = PLANE ( 'NONE',  #91 ) ;
#244 = SECURITY_CLASSIFICATION ( '', '', #9 ) ;
#245 = DIRECTION ( 'NONE',  ( 3.491481338843133355E-15, -0.000000000000000000, 1.000000000000000000 ) ) ;
#246 = CARTESIAN_POINT ( 'NONE',  ( 1.486958722148516871E-14, 0.000000000000000000, 4.258819045102516299 ) ) ;
#247 = ORIENTED_EDGE ( 'NONE', *, *, #36, .T. ) ;
#248 = DIRECTION ( 'NONE',  ( 1.000000000000000000, 0.000000000000000000, 0.000000000000000000 ) ) ;
#249 = DIRECTION ( 'NONE',  ( -1.000000000000000000, 0.000000000000000000, 3.491481338843133355E-15 ) ) ;
#250 = ADVANCED_FACE ( 'NONE', ( #154, #75 ), #153, .F. ) ;
#251 = CIRCLE ( 'NONE', #268, 1.199999999999993072 ) ;
#252 = AXIS2_PLACEMENT_3D ( 'NONE', #23, #186, #248 ) ;
#253 = DIRECTION ( 'NONE',  ( 3.491481338843133355E-15, -0.000000000000000000, 1.000000000000000000 ) ) ;
#254 = EDGE_LOOP ( 'NONE', ( #146 ) ) ;
#255 = PERSON_AND_ORGANIZATION_ROLE ( 'creator' ) ;
#256 = AXIS2_PLACEMENT_3D ( 'NONE', #70, #66, #207 ) ;
#257 = AXIS2_PLACEMENT_3D ( 'NONE', #37, #157, #200 ) ;
#258 = APPROVAL_ROLE ( '' ) ;
#259 = VERTEX_POINT ( 'NONE', #174 ) ;
#260 = COORDINATED_UNIVERSAL_TIME_OFFSET ( 1, 0, .AHEAD. ) ;
#261 = DIRECTION ( 'NONE',  ( 1.000000000000000000, 0.000000000000000000, -5.782411586589390376E-15 ) ) ;
#262 = CARTESIAN_POINT ( 'NONE',  ( 0.3199999999999999512, 0.000000000000000000, -1.117274028429802713E-15 ) ) ;
#263 = DIRECTION ( 'NONE',  ( 3.491481338843133355E-15, -0.000000000000000000, 1.000000000000000000 ) ) ;
#264 = PRODUCT_DEFINITION ( 'UNKNOWN', '', #149, #124 ) ;
#265 = CARTESIAN_POINT ( 'NONE',  ( 1.500000000000029754, 0.000000000000000000, 8.535472450518781784 ) ) ;
#266 = CARTESIAN_POINT ( 'NONE',  ( 5.005276100956706904E-16, 0.000000000000000000, 0.1433568051838751689 ) ) ;
#267 = APPROVAL ( #90, 'UNSPECIFIED' ) ;
#268 = AXIS2_PLACEMENT_3D ( 'NONE', #108, #128, #261 ) ;
#269 = CARTESIAN_POINT ( 'NONE',  ( 0.000000000000000000, 0.000000000000000000, 0.000000000000000000 ) ) ;
#270 = ORIENTED_EDGE ( 'NONE', *, *, #1, .F. ) ;
#271 = CARTESIAN_POINT ( 'NONE',  ( 1.326762908760390423E-13, 0.000000000000000000, 38.00000000000000000 ) ) ;
#272 = ADVANCED_FACE ( 'NONE', ( #33, #176 ), #105, .T. ) ;
#273 = DIRECTION ( 'NONE',  ( 3.491481338843133355E-15, -0.000000000000000000, 1.000000000000000000 ) ) ;
#274 = CIRCLE ( 'NONE', #240, 0.5250000000000001332 ) ;
#275 = DIRECTION ( 'NONE',  ( 3.491481338843133355E-15, -0.000000000000000000, 1.000000000000000000 ) ) ;
ENDSEC;
END-ISO-10303-21;
