ISO-10303-21;
HEADER;
FILE_DESCRIPTION (( 'STEP AP203' ),
    '1' );
FILE_NAME ('965907.step',
    '2021-11-30T06:45:15',
    ( '' ),
    ( '' ),
    'SwSTEP 2.0',
    'SolidWorks 2019',
    '' );
FILE_SCHEMA (( 'CONFIG_CONTROL_DESIGN' ));
ENDSEC;

DATA;
#1 = PRODUCT_DEFINITION ( 'UNKNOWN', '', #152, #220 ) ;
#2 = ORIENTED_EDGE ( 'NONE', *, *, #182, .F. ) ;
#3 = ORIENTED_EDGE ( 'NONE', *, *, #194, .T. ) ;
#4 =( GEOMETRIC_REPRESENTATION_CONTEXT ( 3 ) GLOBAL_UNCERTAINTY_ASSIGNED_CONTEXT ( ( #266 ) ) GLOBAL_UNIT_ASSIGNED_CONTEXT ( ( #100, #286, #165 ) ) REPRESENTATION_CONTEXT ( 'NONE', 'WORKASPACE' ) );
#5 = DIRECTION ( 'NONE',  ( -3.491481338843133355E-15, 1.224646799147353207E-16, -1.000000000000000000 ) ) ;
#6 = CARTESIAN_POINT ( 'NONE',  ( 3.491481338843133355E-14, 8.987310497601124979E-33, 10.00000000000000000 ) ) ;
#7 = VERTEX_POINT ( 'NONE', #293 ) ;
#8 = PERSON_AND_ORGANIZATION ( #104, #180 ) ;
#9 = VERTEX_POINT ( 'NONE', #95 ) ;
#10 = PERSON_AND_ORGANIZATION ( #104, #180 ) ;
#11 = EDGE_CURVE ( 'NONE', #93, #93, #87, .T. ) ;
#12 = ADVANCED_FACE ( 'NONE', ( #204 ), #181, .F. ) ;
#13 = AXIS2_PLACEMENT_3D ( 'NONE', #71, #235, #167 ) ;
#14 = ORIENTED_EDGE ( 'NONE', *, *, #11, .T. ) ;
#15 = EDGE_LOOP ( 'NONE', ( #132 ) ) ;
#16 = PERSON_AND_ORGANIZATION ( #104, #180 ) ;
#17 = PERSON_AND_ORGANIZATION ( #104, #180 ) ;
#18 = EDGE_LOOP ( 'NONE', ( #176 ) ) ;
#19 = ADVANCED_FACE ( 'NONE', ( #257 ), #46, .F. ) ;
#20 = PRODUCT_RELATED_PRODUCT_CATEGORY ( 'detail', '', ( #105 ) ) ;
#21 = CARTESIAN_POINT ( 'NONE',  ( 6.982962677686266711E-14, -2.602085213965210642E-15, 20.00000000000000000 ) ) ;
#22 = SECURITY_CLASSIFICATION ( '', '', #171 ) ;
#23 = MANIFOLD_SOLID_BREP ( 'Corps-Déplacer/Copier1[1]', #237 ) ;
#24 = DIRECTION ( 'NONE',  ( -4.275831445896958607E-31, -1.000000000000000000, -1.224646799147353207E-16 ) ) ;
#25 = CARTESIAN_POINT ( 'NONE',  ( 3.584309283006850024E-14, -1.257206458976207263E-15, 10.26586979896181973 ) ) ;
#26 = CARTESIAN_POINT ( 'NONE',  ( 3.584309283006850024E-14, 1.044999999999997486, 10.26586979896181973 ) ) ;
#27 = ADVANCED_FACE ( 'NONE', ( #115, #245 ), #60, .T. ) ;
#28 = VERTEX_POINT ( 'NONE', #26 ) ;
#29 = LOCAL_TIME ( 7, 45, 15.00000000000000000, #56 ) ;
#30 = DIRECTION ( 'NONE',  ( 3.491481338843133355E-15, -1.224646799147353207E-16, 1.000000000000000000 ) ) ;
#31 = VERTEX_POINT ( 'NONE', #189 ) ;
#32 = PERSON_AND_ORGANIZATION ( #104, #180 ) ;
#33 = ADVANCED_FACE ( 'NONE', ( #62, #178 ), #210, .F. ) ;
#34 = APPROVAL_DATE_TIME ( #169, #197 ) ;
#35 = EDGE_LOOP ( 'NONE', ( #128 ) ) ;
#36 = AXIS2_PLACEMENT_3D ( 'NONE', #162, #48, #164 ) ;
#37 = EDGE_CURVE ( 'NONE', #7, #7, #144, .T. ) ;
#38 = EDGE_LOOP ( 'NONE', ( #3 ) ) ;
#39 = APPROVAL_DATE_TIME ( #151, #123 ) ;
#40 = EDGE_LOOP ( 'NONE', ( #273 ) ) ;
#41 = APPROVAL_STATUS ( 'not_yet_approved' ) ;
#42 = EDGE_LOOP ( 'NONE', ( #229 ) ) ;
#43 = AXIS2_PLACEMENT_3D ( 'NONE', #109, #302, #110 ) ;
#44 = AXIS2_PLACEMENT_3D ( 'NONE', #88, #185, #284 ) ;
#45 = LOCAL_TIME ( 7, 45, 15.00000000000000000, #277 ) ;
#46 = PLANE ( 'NONE',  #133 ) ;
#47 = CARTESIAN_POINT ( 'NONE',  ( 7.945009131041970178E-14, -2.786734069943768694E-15, 22.75541055497798482 ) ) ;
#48 = DIRECTION ( 'NONE',  ( -3.491481338843133355E-15, 1.224646799147353207E-16, -1.000000000000000000 ) ) ;
#49 = CARTESIAN_POINT ( 'NONE',  ( 0.0000000000000000000, 0.0000000000000000000, 0.0000000000000000000 ) ) ;
#50 = AXIS2_PLACEMENT_3D ( 'NONE', #21, #219, #97 ) ;
#51 = AXIS2_PLACEMENT_3D ( 'NONE', #205, #86, #179 ) ;
#52 = CARTESIAN_POINT ( 'NONE',  ( 3.491481338843133355E-14, 1.198499999999993681, 10.00000000000000000 ) ) ;
#53 = VERTEX_POINT ( 'NONE', #288 ) ;
#54 = AXIS2_PLACEMENT_3D ( 'NONE', #233, #202, #140 ) ;
#55 = CALENDAR_DATE ( 2021, 30, 11 ) ;
#56 = COORDINATED_UNIVERSAL_TIME_OFFSET ( 1, 0, .AHEAD. ) ;
#57 = EDGE_LOOP ( 'NONE', ( #2 ) ) ;
#58 = COORDINATED_UNIVERSAL_TIME_OFFSET ( 1, 0, .AHEAD. ) ;
#59 = APPLICATION_CONTEXT ( 'configuration controlled 3d designs of mechanical parts and assemblies' ) ;
#60 = CONICAL_SURFACE ( 'NONE', #280, 1.198499999999993681, 0.5235987755982932645 ) ;
#61 = AXIS2_PLACEMENT_3D ( 'NONE', #116, #121, #119 ) ;
#62 = FACE_OUTER_BOUND ( 'NONE', #57, .T. ) ;
#63 = CARTESIAN_POINT ( 'NONE',  ( 6.982962677686266711E-14, -2.449293598294706513E-15, 20.00000000000000000 ) ) ;
#64 = DIRECTION ( 'NONE',  ( 3.491481338843133355E-15, -1.224646799147353207E-16, 1.000000000000000000 ) ) ;
#65 = FACE_OUTER_BOUND ( 'NONE', #228, .T. ) ;
#66 = CARTESIAN_POINT ( 'NONE',  ( 1.745740669421566678E-13, -6.123233995736766085E-15, 50.00000000000000000 ) ) ;
#67 = CARTESIAN_POINT ( 'NONE',  ( 0.0000000000000000000, 0.0000000000000000000, 0.0000000000000000000 ) ) ;
#68 = FACE_OUTER_BOUND ( 'NONE', #35, .T. ) ;
#69 = AXIS2_PLACEMENT_3D ( 'NONE', #201, #161, #209 ) ;
#70 = APPROVAL_PERSON_ORGANIZATION ( #271, #197, #76 ) ;
#71 = CARTESIAN_POINT ( 'NONE',  ( 7.945009131041970178E-14, -2.786734069943768694E-15, 22.75541055497798482 ) ) ;
#72 = FACE_OUTER_BOUND ( 'NONE', #252, .T. ) ;
#73 = SHAPE_DEFINITION_REPRESENTATION ( #243, #246 ) ;
#74 = CC_DESIGN_SECURITY_CLASSIFICATION ( #22, ( #152 ) ) ;
#75 = EDGE_CURVE ( 'NONE', #163, #163, #203, .T. ) ;
#76 = APPROVAL_ROLE ( '' ) ;
#77 = ORIENTED_EDGE ( 'NONE', *, *, #303, .T. ) ;
#78 = COORDINATED_UNIVERSAL_TIME_OFFSET ( 1, 0, .AHEAD. ) ;
#79 = ORIENTED_EDGE ( 'NONE', *, *, #159, .F. ) ;
#80 = ADVANCED_FACE ( 'NONE', ( #236, #113 ), #122, .T. ) ;
#81 = FACE_OUTER_BOUND ( 'NONE', #227, .T. ) ;
#82 = CIRCLE ( 'NONE', #36, 1.500000000000001554 ) ;
#83 = AXIS2_PLACEMENT_3D ( 'NONE', #47, #117, #141 ) ;
#84 = ADVANCED_FACE ( 'NONE', ( #300 ), #91, .T. ) ;
#85 = CC_DESIGN_DATE_AND_TIME_ASSIGNMENT ( #125, #106, ( #22 ) ) ;
#86 = DIRECTION ( 'NONE',  ( -3.491481338843133355E-15, 1.224646799147353207E-16, -1.000000000000000000 ) ) ;
#87 = CIRCLE ( 'NONE', #43, 1.198499999999995014 ) ;
#88 = CARTESIAN_POINT ( 'NONE',  ( 8.728703347107829444E-16, -3.061616997868381785E-17, 0.2499999999999998890 ) ) ;
#89 = AXIS2_PLACEMENT_3D ( 'NONE', #25, #207, #258 ) ;
#90 = DIRECTION ( 'NONE',  ( 4.275831445896958607E-31, 1.000000000000000000, 1.224646799147353454E-16 ) ) ;
#91 = PLANE ( 'NONE',  #134 ) ;
#92 = CYLINDRICAL_SURFACE ( 'NONE', #166, 1.499999999999999112 ) ;
#93 = VERTEX_POINT ( 'NONE', #52 ) ;
#94 = DIRECTION ( 'NONE',  ( -3.491481338843133355E-15, 1.224646799147353207E-16, -1.000000000000000000 ) ) ;
#95 = CARTESIAN_POINT ( 'NONE',  ( 7.104220552055901835E-14, 1.075384493975578337, 20.34729635533384595 ) ) ;
#96 = CC_DESIGN_APPROVAL ( #123, ( #152 ) ) ;
#97 = DIRECTION ( 'NONE',  ( 4.275831445896958607E-31, 1.000000000000000000, 1.224646799147353207E-16 ) ) ;
#98 = CYLINDRICAL_SURFACE ( 'NONE', #112, 1.044999999999999263 ) ;
#99 = CARTESIAN_POINT ( 'NONE',  ( 8.728703347107829444E-16, -3.061616997868381785E-17, 0.2499999999999998890 ) ) ;
#100 =( LENGTH_UNIT ( ) NAMED_UNIT ( * ) SI_UNIT ( .MILLI., .METRE. ) );
#101 = APPROVAL_DATE_TIME ( #129, #214 ) ;
#102 = CONICAL_SURFACE ( 'NONE', #61, 1.044999999999998819, 0.5235987755982941527 ) ;
#103 = APPLICATION_CONTEXT ( 'configuration controlled 3d designs of mechanical parts and assemblies' ) ;
#104 = PERSON ( 'UNSPECIFIED', 'UNSPECIFIED', 'UNSPECIFIED', ('UNSPECIFIED'), ('UNSPECIFIED'), ('UNSPECIFIED') ) ;
#105 = PRODUCT ( '965907', '965907', '', ( #124 ) ) ;
#106 = DATE_TIME_ROLE ( 'classification_date' ) ;
#107 = ORIENTED_EDGE ( 'NONE', *, *, #285, .T. ) ;
#108 = COORDINATED_UNIVERSAL_TIME_OFFSET ( 1, 0, .AHEAD. ) ;
#109 = CARTESIAN_POINT ( 'NONE',  ( 3.491481338843133355E-14, -1.224646799147353256E-15, 10.00000000000000000 ) ) ;
#110 = DIRECTION ( 'NONE',  ( 0.0000000000000000000, 1.000000000000000000, 0.0000000000000000000 ) ) ;
#111 = DIRECTION ( 'NONE',  ( 4.275831445896958607E-31, 1.000000000000000000, 1.224646799147353207E-16 ) ) ;
#112 = AXIS2_PLACEMENT_3D ( 'NONE', #67, #5, #90 ) ;
#113 = FACE_OUTER_BOUND ( 'NONE', #130, .T. ) ;
#114 = DIRECTION ( 'NONE',  ( -4.820850924623895034E-31, -1.000000000000000000, -1.356948901734055298E-16 ) ) ;
#115 = FACE_BOUND ( 'NONE', #196, .T. ) ;
#116 = CARTESIAN_POINT ( 'NONE',  ( 3.584309283006850024E-14, -1.257206458976207263E-15, 10.26586979896181973 ) ) ;
#117 = DIRECTION ( 'NONE',  ( 3.491481338843133355E-15, -1.224646799147353207E-16, 1.000000000000000000 ) ) ;
#118 = DIRECTION ( 'NONE',  ( -3.491481338843133355E-15, 1.224646799147353207E-16, -1.000000000000000000 ) ) ;
#119 = DIRECTION ( 'NONE',  ( 0.0000000000000000000, 1.000000000000000000, 0.0000000000000000000 ) ) ;
#120 = CARTESIAN_POINT ( 'NONE',  ( 0.0000000000000000000, 0.0000000000000000000, 0.0000000000000000000 ) ) ;
#121 = DIRECTION ( 'NONE',  ( -3.491481338843133355E-15, 1.224646799147353207E-16, -1.000000000000000000 ) ) ;
#122 = CONICAL_SURFACE ( 'NONE', #83, 1.499999999999996669, 0.1745329251994263975 ) ;
#123 = APPROVAL ( #254, 'UNSPECIFIED' ) ;
#124 = MECHANICAL_CONTEXT ( 'NONE', #103, 'mechanical' ) ;
#125 = DATE_AND_TIME ( #55, #190 ) ;
#126 = LOCAL_TIME ( 7, 45, 15.00000000000000000, #78 ) ;
#127 = ORIENTED_EDGE ( 'NONE', *, *, #223, .T. ) ;
#128 = ORIENTED_EDGE ( 'NONE', *, *, #75, .F. ) ;
#129 = DATE_AND_TIME ( #174, #29 ) ;
#130 = EDGE_LOOP ( 'NONE', ( #77 ) ) ;
#131 = ADVANCED_FACE ( 'NONE', ( #68, #136 ), #200, .T. ) ;
#132 = ORIENTED_EDGE ( 'NONE', *, *, #37, .T. ) ;
#133 = AXIS2_PLACEMENT_3D ( 'NONE', #139, #232, #24 ) ;
#134 = AXIS2_PLACEMENT_3D ( 'NONE', #6, #188, #287 ) ;
#135 = EDGE_CURVE ( 'NONE', #9, #9, #158, .T. ) ;
#136 = FACE_OUTER_BOUND ( 'NONE', #276, .T. ) ;
#137 = CC_DESIGN_PERSON_AND_ORGANIZATION_ASSIGNMENT ( #32, #301, ( #1 ) ) ;
#138 = APPROVAL_PERSON_ORGANIZATION ( #225, #214, #247 ) ;
#139 = CARTESIAN_POINT ( 'NONE',  ( 3.491481338843133355E-14, 8.987310497601124979E-33, 10.00000000000000000 ) ) ;
#140 = DIRECTION ( 'NONE',  ( 4.275831445896957731E-31, 1.000000000000000000, 1.224646799147353207E-16 ) ) ;
#141 = DIRECTION ( 'NONE',  ( 0.0000000000000000000, -1.000000000000000000, 0.0000000000000000000 ) ) ;
#142 = FACE_OUTER_BOUND ( 'NONE', #172, .T. ) ;
#143 = PERSON_AND_ORGANIZATION_ROLE ( 'design_owner' ) ;
#144 = CIRCLE ( 'NONE', #69, 1.054162432702588914 ) ;
#145 = CONICAL_SURFACE ( 'NONE', #170, 1.200000000000001732, 0.7853981633974453924 ) ;
#146 = CARTESIAN_POINT ( 'NONE',  ( 8.728703347107835360E-16, 1.198499999999993681, 0.2500000000000000555 ) ) ;
#147 = CARTESIAN_POINT ( 'NONE',  ( 6.982962677686266711E-14, 1.044999999999997264, 20.00000000000000000 ) ) ;
#148 = DIRECTION ( 'NONE',  ( 0.0000000000000000000, 0.0000000000000000000, 1.000000000000000000 ) ) ;
#149 = CC_DESIGN_PERSON_AND_ORGANIZATION_ASSIGNMENT ( #250, #192, ( #152 ) ) ;
#150 = ORIENTED_EDGE ( 'NONE', *, *, #159, .T. ) ;
#151 = DATE_AND_TIME ( #298, #45 ) ;
#152 = PRODUCT_DEFINITION_FORMATION_WITH_SPECIFIED_SOURCE ( 'ANY', '', #105, .NOT_KNOWN. ) ;
#153 = ORIENTED_EDGE ( 'NONE', *, *, #303, .F. ) ;
#154 = CALENDAR_DATE ( 2021, 30, 11 ) ;
#155 = ORIENTED_EDGE ( 'NONE', *, *, #194, .F. ) ;
#156 = DATE_AND_TIME ( #154, #126 ) ;
#157 = EDGE_LOOP ( 'NONE', ( #127 ) ) ;
#158 = CIRCLE ( 'NONE', #51, 1.075384493975580780 ) ;
#159 = EDGE_CURVE ( 'NONE', #28, #28, #238, .T. ) ;
#160 = DIRECTION ( 'NONE',  ( -4.275831445896958607E-31, -1.000000000000000000, -1.224646799147353207E-16 ) ) ;
#161 = DIRECTION ( 'NONE',  ( -3.491481338843133355E-15, 1.224646799147353207E-16, -1.000000000000000000 ) ) ;
#162 = CARTESIAN_POINT ( 'NONE',  ( 1.735266225405037467E-13, -6.086494591762345225E-15, 49.70000000000000284 ) ) ;
#163 = VERTEX_POINT ( 'NONE', #146 ) ;
#164 = DIRECTION ( 'NONE',  ( 0.0000000000000000000, 1.000000000000000000, 0.0000000000000000000 ) ) ;
#165 =( NAMED_UNIT ( * ) SI_UNIT ( $, .STERADIAN. ) SOLID_ANGLE_UNIT ( ) );
#166 = AXIS2_PLACEMENT_3D ( 'NONE', #120, #94, #291 ) ;
#167 = DIRECTION ( 'NONE',  ( 0.0000000000000000000, 1.000000000000000000, 0.0000000000000000000 ) ) ;
#168 = VERTEX_POINT ( 'NONE', #147 ) ;
#169 = DATE_AND_TIME ( #198, #231 ) ;
#170 = AXIS2_PLACEMENT_3D ( 'NONE', #251, #261, #217 ) ;
#171 = SECURITY_CLASSIFICATION_LEVEL ( 'unclassified' ) ;
#172 = EDGE_LOOP ( 'NONE', ( #153 ) ) ;
#173 = EDGE_LOOP ( 'NONE', ( #107 ) ) ;
#174 = CALENDAR_DATE ( 2021, 30, 11 ) ;
#175 = CC_DESIGN_APPROVAL ( #214, ( #22 ) ) ;
#176 = ORIENTED_EDGE ( 'NONE', *, *, #182, .T. ) ;
#177 = EDGE_LOOP ( 'NONE', ( #150 ) ) ;
#178 = FACE_OUTER_BOUND ( 'NONE', #42, .T. ) ;
#179 = DIRECTION ( 'NONE',  ( 0.0000000000000000000, 1.000000000000000000, 0.0000000000000000000 ) ) ;
#180 = ORGANIZATION ( 'UNSPECIFIED', 'UNSPECIFIED', '' ) ;
#181 = PLANE ( 'NONE',  #268 ) ;
#182 = EDGE_CURVE ( 'NONE', #168, #168, #274, .T. ) ;
#183 = CLOSED_SHELL ( 'NONE', ( #12, #27, #131, #84 ) ) ;
#184 = CARTESIAN_POINT ( 'NONE',  ( 1.745740669421566678E-13, 8.998558695971067645E-33, 50.00000000000000000 ) ) ;
#185 = DIRECTION ( 'NONE',  ( -3.491481338843133355E-15, 1.224646799147353207E-16, -1.000000000000000000 ) ) ;
#186 = ADVANCED_FACE ( 'NONE', ( #81, #241 ), #145, .T. ) ;
#187 = CARTESIAN_POINT ( 'NONE',  ( 1.745740669421566678E-13, 1.199999999999995515, 50.00000000000000000 ) ) ;
#188 = DIRECTION ( 'NONE',  ( 3.491481338843133355E-15, -1.224646799147353207E-16, 1.000000000000000000 ) ) ;
#189 = CARTESIAN_POINT ( 'NONE',  ( 3.491481338843133355E-14, 1.198499999999993681, 10.00000000000000000 ) ) ;
#190 = LOCAL_TIME ( 7, 45, 15.00000000000000000, #58 ) ;
#191 = DIRECTION ( 'NONE',  ( -3.491481338843133355E-15, 1.224646799147353207E-16, -1.000000000000000000 ) ) ;
#192 = PERSON_AND_ORGANIZATION_ROLE ( 'design_supplier' ) ;
#193 = CIRCLE ( 'NONE', #249, 1.198499999999995014 ) ;
#194 = EDGE_CURVE ( 'NONE', #31, #31, #193, .T. ) ;
#195 = ORIENTED_EDGE ( 'NONE', *, *, #135, .F. ) ;
#196 = EDGE_LOOP ( 'NONE', ( #230 ) ) ;
#197 = APPROVAL ( #296, 'UNSPECIFIED' ) ;
#198 = CALENDAR_DATE ( 2021, 30, 11 ) ;
#199 = CC_DESIGN_PERSON_AND_ORGANIZATION_ASSIGNMENT ( #10, #270, ( #22 ) ) ;
#200 = CYLINDRICAL_SURFACE ( 'NONE', #54, 1.198499999999994348 ) ;
#201 = CARTESIAN_POINT ( 'NONE',  ( -6.400156705216127534E-31, 2.244872781041819829E-32, -1.833077735233364938E-16 ) ) ;
#202 = DIRECTION ( 'NONE',  ( -3.491481338843133355E-15, 1.224646799147353207E-16, -1.000000000000000000 ) ) ;
#203 = CIRCLE ( 'NONE', #44, 1.198499999999993681 ) ;
#204 = FACE_OUTER_BOUND ( 'NONE', #15, .T. ) ;
#205 = CARTESIAN_POINT ( 'NONE',  ( 7.104220552055901835E-14, -2.491825135286219831E-15, 20.34729635533384595 ) ) ;
#206 = EDGE_LOOP ( 'NONE', ( #79 ) ) ;
#207 = DIRECTION ( 'NONE',  ( -3.491481338843133355E-15, 1.224646799147353207E-16, -1.000000000000000000 ) ) ;
#208 = ADVANCED_FACE ( 'NONE', ( #142, #239 ), #92, .T. ) ;
#209 = DIRECTION ( 'NONE',  ( 4.275831445896958607E-31, 1.000000000000000000, 1.224646799147353207E-16 ) ) ;
#210 = TOROIDAL_SURFACE ( 'NONE', #50, 3.044999999999999929, 2.000000000000000000 ) ;
#211 = APPROVAL_PERSON_ORGANIZATION ( #16, #123, #224 ) ;
#212 = VERTEX_POINT ( 'NONE', #187 ) ;
#213 = CC_DESIGN_PERSON_AND_ORGANIZATION_ASSIGNMENT ( #8, #143, ( #105 ) ) ;
#214 = APPROVAL ( #41, 'UNSPECIFIED' ) ;
#215 = DIRECTION ( 'NONE',  ( 0.0000000000000000000, 1.000000000000000000, 0.0000000000000000000 ) ) ;
#216 = DIRECTION ( 'NONE',  ( -3.491481338843133355E-15, 1.224646799147353207E-16, -1.000000000000000000 ) ) ;
#217 = DIRECTION ( 'NONE',  ( 0.0000000000000000000, 1.000000000000000000, 0.0000000000000000000 ) ) ;
#218 = CIRCLE ( 'NONE', #13, 1.499999999999996669 ) ;
#219 = DIRECTION ( 'NONE',  ( -3.491481338843133355E-15, 1.224646799147353207E-16, -1.000000000000000000 ) ) ;
#220 = DESIGN_CONTEXT ( 'detailed design', #59, 'design' ) ;
#221 = FACE_OUTER_BOUND ( 'NONE', #18, .T. ) ;
#222 = MANIFOLD_SOLID_BREP ( 'Corps-Déplacer/Copier1[2]', #183 ) ;
#223 = EDGE_CURVE ( 'NONE', #267, #267, #82, .T. ) ;
#224 = APPROVAL_ROLE ( '' ) ;
#225 = PERSON_AND_ORGANIZATION ( #104, #180 ) ;
#226 = CC_DESIGN_APPROVAL ( #197, ( #1 ) ) ;
#227 = EDGE_LOOP ( 'NONE', ( #253 ) ) ;
#228 = EDGE_LOOP ( 'NONE', ( #299 ) ) ;
#229 = ORIENTED_EDGE ( 'NONE', *, *, #135, .T. ) ;
#230 = ORIENTED_EDGE ( 'NONE', *, *, #37, .F. ) ;
#231 = LOCAL_TIME ( 7, 45, 15.00000000000000000, #108 ) ;
#232 = DIRECTION ( 'NONE',  ( 3.491481338843133355E-15, -1.224646799147353207E-16, 1.000000000000000000 ) ) ;
#233 = CARTESIAN_POINT ( 'NONE',  ( 0.0000000000000000000, 0.0000000000000000000, 0.0000000000000000000 ) ) ;
#234 = DIRECTION ( 'NONE',  ( -3.491481338843133355E-15, 1.224646799147353207E-16, -1.000000000000000000 ) ) ;
#235 = DIRECTION ( 'NONE',  ( -3.491481338843133355E-15, 1.224646799147353207E-16, -1.000000000000000000 ) ) ;
#236 = FACE_BOUND ( 'NONE', #297, .T. ) ;
#237 = CLOSED_SHELL ( 'NONE', ( #19, #282, #279, #33, #80, #208, #186, #272 ) ) ;
#238 = CIRCLE ( 'NONE', #89, 1.044999999999998819 ) ;
#239 = FACE_OUTER_BOUND ( 'NONE', #157, .T. ) ;
#240 = FACE_OUTER_BOUND ( 'NONE', #206, .T. ) ;
#241 = FACE_BOUND ( 'NONE', #173, .T. ) ;
#242 = DIRECTION ( 'NONE',  ( 1.000000000000000000, 0.0000000000000000000, 0.0000000000000000000 ) ) ;
#243 = PRODUCT_DEFINITION_SHAPE ( 'NONE', 'NONE',  #1 ) ;
#244 = CARTESIAN_POINT ( 'NONE',  ( 3.491481338843133355E-14, -1.224646799147353256E-15, 10.00000000000000000 ) ) ;
#245 = FACE_OUTER_BOUND ( 'NONE', #40, .T. ) ;
#246 = ADVANCED_BREP_SHAPE_REPRESENTATION ( '965907', ( #23, #222, #255 ), #4 ) ;
#247 = APPROVAL_ROLE ( '' ) ;
#248 = ORIENTED_EDGE ( 'NONE', *, *, #11, .F. ) ;
#249 = AXIS2_PLACEMENT_3D ( 'NONE', #244, #118, #294 ) ;
#250 = PERSON_AND_ORGANIZATION ( #104, #180 ) ;
#251 = CARTESIAN_POINT ( 'NONE',  ( 1.745740669421566678E-13, -6.123233995736766085E-15, 50.00000000000000000 ) ) ;
#252 = EDGE_LOOP ( 'NONE', ( #155 ) ) ;
#253 = ORIENTED_EDGE ( 'NONE', *, *, #223, .F. ) ;
#254 = APPROVAL_STATUS ( 'not_yet_approved' ) ;
#255 = AXIS2_PLACEMENT_3D ( 'NONE', #49, #148, #242 ) ;
#256 = DIRECTION ( 'NONE',  ( 0.0000000000000000000, 1.000000000000000000, 0.0000000000000000000 ) ) ;
#257 = FACE_OUTER_BOUND ( 'NONE', #38, .T. ) ;
#258 = DIRECTION ( 'NONE',  ( 0.0000000000000000000, 1.000000000000000000, 0.0000000000000000000 ) ) ;
#259 = APPLICATION_PROTOCOL_DEFINITION ( 'international standard', 'config_control_design', 1994, #59 ) ;
#260 = CC_DESIGN_DATE_AND_TIME_ASSIGNMENT ( #156, #275, ( #1 ) ) ;
#261 = DIRECTION ( 'NONE',  ( -3.491481338843133355E-15, 1.224646799147353207E-16, -1.000000000000000000 ) ) ;
#262 = AXIS2_PLACEMENT_3D ( 'NONE', #66, #191, #215 ) ;
#263 = PLANE ( 'NONE',  #289 ) ;
#264 = FACE_BOUND ( 'NONE', #177, .T. ) ;
#265 = APPLICATION_PROTOCOL_DEFINITION ( 'international standard', 'config_control_design', 1994, #103 ) ;
#266 = UNCERTAINTY_MEASURE_WITH_UNIT (LENGTH_MEASURE( 1.000000000000000082E-05 ), #100, 'distance_accuracy_value', 'NONE');
#267 = VERTEX_POINT ( 'NONE', #290 ) ;
#268 = AXIS2_PLACEMENT_3D ( 'NONE', #283, #64, #160 ) ;
#269 = AXIS2_PLACEMENT_3D ( 'NONE', #63, #234, #256 ) ;
#270 = PERSON_AND_ORGANIZATION_ROLE ( 'classification_officer' ) ;
#271 = PERSON_AND_ORGANIZATION ( #104, #180 ) ;
#272 = ADVANCED_FACE ( 'NONE', ( #65 ), #263, .F. ) ;
#273 = ORIENTED_EDGE ( 'NONE', *, *, #75, .T. ) ;
#274 = CIRCLE ( 'NONE', #269, 1.044999999999999707 ) ;
#275 = DATE_TIME_ROLE ( 'creation_date' ) ;
#276 = EDGE_LOOP ( 'NONE', ( #14 ) ) ;
#277 = COORDINATED_UNIVERSAL_TIME_OFFSET ( 1, 0, .AHEAD. ) ;
#278 = EDGE_LOOP ( 'NONE', ( #248 ) ) ;
#279 = ADVANCED_FACE ( 'NONE', ( #240, #221 ), #98, .T. ) ;
#280 = AXIS2_PLACEMENT_3D ( 'NONE', #99, #30, #114 ) ;
#281 = CIRCLE ( 'NONE', #262, 1.200000000000001732 ) ;
#282 = ADVANCED_FACE ( 'NONE', ( #72, #264 ), #102, .T. ) ;
#283 = CARTESIAN_POINT ( 'NONE',  ( -3.200078352608063767E-31, 1.122436390520909915E-32, -9.165388676166824688E-17 ) ) ;
#284 = DIRECTION ( 'NONE',  ( 4.820850924623895034E-31, 1.000000000000000000, 1.356948901734055298E-16 ) ) ;
#285 = EDGE_CURVE ( 'NONE', #212, #212, #281, .T. ) ;
#286 =( NAMED_UNIT ( * ) PLANE_ANGLE_UNIT ( ) SI_UNIT ( $, .RADIAN. ) );
#287 = DIRECTION ( 'NONE',  ( -4.275831445896958607E-31, -1.000000000000000000, -1.224646799147353207E-16 ) ) ;
#288 = CARTESIAN_POINT ( 'NONE',  ( 7.945009131041970178E-14, 1.499999999999994005, 22.75541055497798482 ) ) ;
#289 = AXIS2_PLACEMENT_3D ( 'NONE', #184, #216, #111 ) ;
#290 = CARTESIAN_POINT ( 'NONE',  ( 1.735266225405037467E-13, 1.499999999999995559, 49.70000000000000284 ) ) ;
#291 = DIRECTION ( 'NONE',  ( 4.275831445896958607E-31, 1.000000000000000000, 1.224646799147353454E-16 ) ) ;
#292 = CC_DESIGN_PERSON_AND_ORGANIZATION_ASSIGNMENT ( #17, #295, ( #152 ) ) ;
#293 = CARTESIAN_POINT ( 'NONE',  ( -1.892735826383161356E-31, 1.054162432702588914, -5.421010862427522170E-17 ) ) ;
#294 = DIRECTION ( 'NONE',  ( 0.0000000000000000000, 1.000000000000000000, 0.0000000000000000000 ) ) ;
#295 = PERSON_AND_ORGANIZATION_ROLE ( 'creator' ) ;
#296 = APPROVAL_STATUS ( 'not_yet_approved' ) ;
#297 = EDGE_LOOP ( 'NONE', ( #195 ) ) ;
#298 = CALENDAR_DATE ( 2021, 30, 11 ) ;
#299 = ORIENTED_EDGE ( 'NONE', *, *, #285, .F. ) ;
#300 = FACE_OUTER_BOUND ( 'NONE', #278, .T. ) ;
#301 = PERSON_AND_ORGANIZATION_ROLE ( 'creator' ) ;
#302 = DIRECTION ( 'NONE',  ( -3.491481338843133355E-15, 1.224646799147353207E-16, -1.000000000000000000 ) ) ;
#303 = EDGE_CURVE ( 'NONE', #53, #53, #218, .T. ) ;
ENDSEC;
END-ISO-10303-21;
