ISO-10303-21;
HEADER;
FILE_DESCRIPTION (( 'STEP AP203' ),
    '1' );
FILE_NAME ('965844.step',
    '2021-11-10T12:11:27',
    ( '' ),
    ( '' ),
    'SwSTEP 2.0',
    'SolidWorks 2019',
    '' );
FILE_SCHEMA (( 'CONFIG_CONTROL_DESIGN' ));
ENDSEC;

DATA;
#1 = ADVANCED_FACE ( 'NONE', ( #220, #110 ), #184, .F. ) ;
#2 = AXIS2_PLACEMENT_3D ( 'NONE', #96, #150, #170 ) ;
#3 = ORIENTED_EDGE ( 'NONE', *, *, #72, .T. ) ;
#4 = CARTESIAN_POINT ( 'NONE',  ( 4.549004778950331710E-14, -1.624875745579180360E-15, 13.02886751345948113 ) ) ;
#5 = VERTEX_POINT ( 'NONE', #63 ) ;
#6 = AXIS2_PLACEMENT_3D ( 'NONE', #232, #118, #136 ) ;
#7 = CARTESIAN_POINT ( 'NONE',  ( 4.366160779561277957E-14, 0.8749999999999984457, 12.50518148554091979 ) ) ;
#8 = ADVANCED_FACE ( 'NONE', ( #206 ), #153, .T. ) ;
#9 = FACE_BOUND ( 'NONE', #18, .T. ) ;
#10 = DIRECTION ( 'NONE',  ( 0.0000000000000000000, -1.000000000000000000, 0.0000000000000000000 ) ) ;
#11 = ADVANCED_FACE ( 'NONE', ( #89, #127 ), #147, .T. ) ;
#12 = PERSON_AND_ORGANIZATION ( #30, #180 ) ;
#13 = COORDINATED_UNIVERSAL_TIME_OFFSET ( 1, 0, .AHEAD. ) ;
#14 = SECURITY_CLASSIFICATION_LEVEL ( 'unclassified' ) ;
#15 = MANIFOLD_SOLID_BREP ( 'Corps-Déplacer/Copier1[1]', #166 ) ;
#16 = DATE_AND_TIME ( #179, #191 ) ;
#17 =( GEOMETRIC_REPRESENTATION_CONTEXT ( 3 ) GLOBAL_UNCERTAINTY_ASSIGNED_CONTEXT ( ( #70 ) ) GLOBAL_UNIT_ASSIGNED_CONTEXT ( ( #173, #87, #106 ) ) REPRESENTATION_CONTEXT ( 'NONE', 'WORKASPACE' ) );
#18 = EDGE_LOOP ( 'NONE', ( #39 ) ) ;
#19 = DIRECTION ( 'NONE',  ( -4.554490559825206315E-31, -1.000000000000000000, -1.281975124255702555E-16 ) ) ;
#20 = ORIENTED_EDGE ( 'NONE', *, *, #119, .F. ) ;
#21 = DATE_AND_TIME ( #186, #88 ) ;
#22 = DIRECTION ( 'NONE',  ( -3.491481338843133355E-15, 1.224646799147353207E-16, -1.000000000000000000 ) ) ;
#23 = APPLICATION_CONTEXT ( 'configuration controlled 3d designs of mechanical parts and assemblies' ) ;
#24 = CARTESIAN_POINT ( 'NONE',  ( 1.326762908760390423E-13, 5.999039130647368167E-33, 38.00000000000000000 ) ) ;
#25 = DIRECTION ( 'NONE',  ( 0.0000000000000000000, 1.000000000000000000, 0.0000000000000000000 ) ) ;
#26 = CARTESIAN_POINT ( 'NONE',  ( 1.326762908760390423E-13, 0.7999999999999963807, 38.00000000000000000 ) ) ;
#27 = LOCAL_TIME ( 13, 11, 27.00000000000000000, #158 ) ;
#28 = DIRECTION ( 'NONE',  ( -3.491481338843133355E-15, 1.224646799147353207E-16, -1.000000000000000000 ) ) ;
#29 = ADVANCED_FACE ( 'NONE', ( #93 ), #242, .F. ) ;
#30 = PERSON ( 'UNSPECIFIED', 'UNSPECIFIED', 'UNSPECIFIED', ('UNSPECIFIED'), ('UNSPECIFIED'), ('UNSPECIFIED') ) ;
#31 = PRODUCT_DEFINITION ( 'UNKNOWN', '', #238, #134 ) ;
#32 = APPROVAL_ROLE ( '' ) ;
#33 = DIRECTION ( 'NONE',  ( 0.0000000000000000000, 0.0000000000000000000, 1.000000000000000000 ) ) ;
#34 = APPROVAL_PERSON_ORGANIZATION ( #236, #61, #68 ) ;
#35 = LOCAL_TIME ( 13, 11, 27.00000000000000000, #71 ) ;
#36 = ORIENTED_EDGE ( 'NONE', *, *, #82, .T. ) ;
#37 = EDGE_LOOP ( 'NONE', ( #20 ) ) ;
#38 = APPROVAL_ROLE ( '' ) ;
#39 = ORIENTED_EDGE ( 'NONE', *, *, #124, .T. ) ;
#40 = EDGE_LOOP ( 'NONE', ( #225 ) ) ;
#41 = CARTESIAN_POINT ( 'NONE',  ( 4.453447813032354713E-14, -1.590743401520160867E-15, 12.75518148554091802 ) ) ;
#42 = CIRCLE ( 'NONE', #105, 0.8000000000000010436 ) ;
#43 = CARTESIAN_POINT ( 'NONE',  ( 1.763831729495173583E-15, -6.186688892561923518E-17, 0.5051814855409197946 ) ) ;
#44 = CC_DESIGN_PERSON_AND_ORGANIZATION_ASSIGNMENT ( #234, #177, ( #31 ) ) ;
#45 = VERTEX_POINT ( 'NONE', #7 ) ;
#46 = FACE_OUTER_BOUND ( 'NONE', #92, .T. ) ;
#47 = AXIS2_PLACEMENT_3D ( 'NONE', #85, #33, #142 ) ;
#48 = DATE_TIME_ROLE ( 'creation_date' ) ;
#49 = APPLICATION_PROTOCOL_DEFINITION ( 'international standard', 'config_control_design', 1994, #23 ) ;
#50 = AXIS2_PLACEMENT_3D ( 'NONE', #57, #132, #188 ) ;
#51 = APPROVAL_DATE_TIME ( #216, #61 ) ;
#52 = PERSON_AND_ORGANIZATION ( #30, #180 ) ;
#53 = PRODUCT_DEFINITION_SHAPE ( 'NONE', 'NONE',  #31 ) ;
#54 = CIRCLE ( 'NONE', #233, 1.000000000000001110 ) ;
#55 = EDGE_CURVE ( 'NONE', #155, #155, #94, .T. ) ;
#56 = ORIENTED_EDGE ( 'NONE', *, *, #203, .F. ) ;
#57 = CARTESIAN_POINT ( 'NONE',  ( 4.366160779561277957E-14, 6.561449049145603771E-33, 12.50518148554091979 ) ) ;
#58 = CARTESIAN_POINT ( 'NONE',  ( 4.366160779561277957E-14, -1.517883041479706208E-15, 12.50518148554091979 ) ) ;
#59 = DIRECTION ( 'NONE',  ( 0.0000000000000000000, 1.000000000000000000, 0.0000000000000000000 ) ) ;
#60 = DIRECTION ( 'NONE',  ( 3.491481338843133355E-15, -1.224646799147353207E-16, 1.000000000000000000 ) ) ;
#61 = APPROVAL ( #102, 'UNSPECIFIED' ) ;
#62 = CLOSED_SHELL ( 'NONE', ( #8, #11, #129 ) ) ;
#63 = CARTESIAN_POINT ( 'NONE',  ( 1.763831729495173978E-15, 0.8749999999999998890, 0.5051814855409199057 ) ) ;
#64 = VERTEX_POINT ( 'NONE', #139 ) ;
#65 = ADVANCED_FACE ( 'NONE', ( #196, #151 ), #152, .T. ) ;
#66 = DIRECTION ( 'NONE',  ( 3.491481338843133355E-15, -1.247135059052984700E-16, 1.000000000000000000 ) ) ;
#67 = APPLICATION_PROTOCOL_DEFINITION ( 'international standard', 'config_control_design', 1994, #165 ) ;
#68 = APPROVAL_ROLE ( '' ) ;
#69 = AXIS2_PLACEMENT_3D ( 'NONE', #211, #114, #212 ) ;
#70 = UNCERTAINTY_MEASURE_WITH_UNIT (LENGTH_MEASURE( 1.000000000000000082E-05 ), #173, 'distance_accuracy_value', 'NONE');
#71 = COORDINATED_UNIVERSAL_TIME_OFFSET ( 1, 0, .AHEAD. ) ;
#72 = EDGE_CURVE ( 'NONE', #5, #5, #109, .T. ) ;
#73 = PERSON_AND_ORGANIZATION ( #30, #180 ) ;
#74 = CONICAL_SURFACE ( 'NONE', #6, 0.8000000000000010436, 0.7853981633974516097 ) ;
#75 = EDGE_LOOP ( 'NONE', ( #146 ) ) ;
#76 = ORIENTED_EDGE ( 'NONE', *, *, #203, .T. ) ;
#77 = LOCAL_TIME ( 13, 11, 27.00000000000000000, #143 ) ;
#78 = EDGE_LOOP ( 'NONE', ( #36 ) ) ;
#79 = DIRECTION ( 'NONE',  ( 3.491481338843133355E-15, -1.247135059052984700E-16, 1.000000000000000000 ) ) ;
#80 = DIRECTION ( 'NONE',  ( -3.491481338843133355E-15, 1.224646799147353207E-16, -1.000000000000000000 ) ) ;
#81 = PRODUCT ( '965844', '965844', '', ( #218 ) ) ;
#82 = EDGE_CURVE ( 'NONE', #140, #140, #145, .T. ) ;
#83 = DIRECTION ( 'NONE',  ( -3.491481338843133355E-15, 1.224646799147353207E-16, -1.000000000000000000 ) ) ;
#84 = CONICAL_SURFACE ( 'NONE', #144, 1.099999999999999201, 0.5235987755982914882 ) ;
#85 = CARTESIAN_POINT ( 'NONE',  ( 0.0000000000000000000, 0.0000000000000000000, 0.0000000000000000000 ) ) ;
#86 = AXIS2_PLACEMENT_3D ( 'NONE', #43, #28, #99 ) ;
#87 =( NAMED_UNIT ( * ) PLANE_ANGLE_UNIT ( ) SI_UNIT ( $, .RADIAN. ) );
#88 = LOCAL_TIME ( 13, 11, 27.00000000000000000, #111 ) ;
#89 = FACE_OUTER_BOUND ( 'NONE', #130, .T. ) ;
#90 = APPROVAL ( #182, 'UNSPECIFIED' ) ;
#91 = DIRECTION ( 'NONE',  ( 4.275831445896958607E-31, 1.000000000000000000, 1.224646799147353207E-16 ) ) ;
#92 = EDGE_LOOP ( 'NONE', ( #241 ) ) ;
#93 = FACE_OUTER_BOUND ( 'NONE', #149, .T. ) ;
#94 = CIRCLE ( 'NONE', #197, 0.8749999999999998890 ) ;
#95 = FACE_BOUND ( 'NONE', #78, .T. ) ;
#96 = CARTESIAN_POINT ( 'NONE',  ( 0.0000000000000000000, 0.0000000000000000000, 0.0000000000000000000 ) ) ;
#97 = MANIFOLD_SOLID_BREP ( 'Corps-Déplacer/Copier1[2]', #62 ) ;
#98 = DIRECTION ( 'NONE',  ( -3.491481338843133355E-15, 1.247135059052984700E-16, -1.000000000000000000 ) ) ;
#99 = DIRECTION ( 'NONE',  ( 4.402125587170824932E-31, 1.000000000000000000, 1.239088197126290817E-16 ) ) ;
#100 = CC_DESIGN_APPROVAL ( #90, ( #131 ) ) ;
#101 = PERSON_AND_ORGANIZATION ( #30, #180 ) ;
#102 = APPROVAL_STATUS ( 'not_yet_approved' ) ;
#103 = CALENDAR_DATE ( 2021, 10, 11 ) ;
#104 = CC_DESIGN_PERSON_AND_ORGANIZATION_ASSIGNMENT ( #239, #201, ( #238 ) ) ;
#105 = AXIS2_PLACEMENT_3D ( 'NONE', #194, #80, #59 ) ;
#106 =( NAMED_UNIT ( * ) SI_UNIT ( $, .STERADIAN. ) SOLID_ANGLE_UNIT ( ) );
#107 = DIRECTION ( 'NONE',  ( -3.491481338843133355E-15, 1.224646799147353207E-16, -1.000000000000000000 ) ) ;
#108 = ORIENTED_EDGE ( 'NONE', *, *, #72, .F. ) ;
#109 = CIRCLE ( 'NONE', #86, 0.8750000000000000000 ) ;
#110 = FACE_OUTER_BOUND ( 'NONE', #40, .T. ) ;
#111 = COORDINATED_UNIVERSAL_TIME_OFFSET ( 1, 0, .AHEAD. ) ;
#112 = EDGE_LOOP ( 'NONE', ( #108 ) ) ;
#113 = CC_DESIGN_DATE_AND_TIME_ASSIGNMENT ( #16, #48, ( #31 ) ) ;
#114 = DIRECTION ( 'NONE',  ( -3.491481338843133355E-15, 1.224646799147353207E-16, -1.000000000000000000 ) ) ;
#115 = APPROVAL_PERSON_ORGANIZATION ( #73, #90, #38 ) ;
#116 = SHAPE_DEFINITION_REPRESENTATION ( #53, #174 ) ;
#117 = DIRECTION ( 'NONE',  ( -3.491481338843133355E-15, 1.224646799147353207E-16, -1.000000000000000000 ) ) ;
#118 = DIRECTION ( 'NONE',  ( -3.491481338843133355E-15, 1.224646799147353207E-16, -1.000000000000000000 ) ) ;
#119 = EDGE_CURVE ( 'NONE', #45, #45, #217, .T. ) ;
#120 = PLANE ( 'NONE',  #208 ) ;
#121 = CARTESIAN_POINT ( 'NONE',  ( 4.488530548224781623E-14, -1.603274732717378170E-15, 12.85566243270259079 ) ) ;
#122 = CALENDAR_DATE ( 2021, 10, 11 ) ;
#123 = CC_DESIGN_PERSON_AND_ORGANIZATION_ASSIGNMENT ( #12, #219, ( #131 ) ) ;
#124 = EDGE_CURVE ( 'NONE', #195, #195, #42, .T. ) ;
#125 = APPROVAL_STATUS ( 'not_yet_approved' ) ;
#126 = CALENDAR_DATE ( 2021, 10, 11 ) ;
#127 = FACE_OUTER_BOUND ( 'NONE', #112, .T. ) ;
#128 = EDGE_LOOP ( 'NONE', ( #209 ) ) ;
#129 = ADVANCED_FACE ( 'NONE', ( #46 ), #120, .T. ) ;
#130 = EDGE_LOOP ( 'NONE', ( #222 ) ) ;
#131 = SECURITY_CLASSIFICATION ( '', '', #14 ) ;
#132 = DIRECTION ( 'NONE',  ( 3.491481338843133355E-15, -1.224646799147353207E-16, 1.000000000000000000 ) ) ;
#133 = DIRECTION ( 'NONE',  ( 4.275831445896958607E-31, 1.000000000000000000, 1.224646799147353207E-16 ) ) ;
#134 = DESIGN_CONTEXT ( 'detailed design', #165, 'design' ) ;
#135 = DIRECTION ( 'NONE',  ( 0.0000000000000000000, -1.000000000000000000, 0.0000000000000000000 ) ) ;
#136 = DIRECTION ( 'NONE',  ( 0.0000000000000000000, 1.000000000000000000, 0.0000000000000000000 ) ) ;
#137 = CARTESIAN_POINT ( 'NONE',  ( 4.453447813032354713E-14, -0.9419872981077813678, 12.75518148554091802 ) ) ;
#138 = CC_DESIGN_PERSON_AND_ORGANIZATION_ASSIGNMENT ( #52, #199, ( #238 ) ) ;
#139 = CARTESIAN_POINT ( 'NONE',  ( 4.488530548224781623E-14, -1.000000000000000666, 12.85566243270259079 ) ) ;
#140 = VERTEX_POINT ( 'NONE', #137 ) ;
#141 = AXIS2_PLACEMENT_3D ( 'NONE', #24, #83, #198 ) ;
#142 = DIRECTION ( 'NONE',  ( 1.000000000000000000, 0.0000000000000000000, 0.0000000000000000000 ) ) ;
#143 = COORDINATED_UNIVERSAL_TIME_OFFSET ( 1, 0, .AHEAD. ) ;
#144 = AXIS2_PLACEMENT_3D ( 'NONE', #4, #79, #228 ) ;
#145 = CIRCLE ( 'NONE', #176, 0.9419872981077797025 ) ;
#146 = ORIENTED_EDGE ( 'NONE', *, *, #193, .T. ) ;
#147 = CYLINDRICAL_SURFACE ( 'NONE', #214, 0.8749999999999998890 ) ;
#148 = AXIS2_PLACEMENT_3D ( 'NONE', #183, #164, #19 ) ;
#149 = EDGE_LOOP ( 'NONE', ( #163 ) ) ;
#150 = DIRECTION ( 'NONE',  ( -3.491481338843133355E-15, 1.224646799147353207E-16, -1.000000000000000000 ) ) ;
#151 = FACE_OUTER_BOUND ( 'NONE', #243, .T. ) ;
#152 = CYLINDRICAL_SURFACE ( 'NONE', #2, 0.9999999999999991118 ) ;
#153 = CONICAL_SURFACE ( 'NONE', #148, 1732.050807568886512, 1.047197551196600074 ) ;
#154 = FACE_OUTER_BOUND ( 'NONE', #181, .T. ) ;
#155 = VERTEX_POINT ( 'NONE', #230 ) ;
#156 = CC_DESIGN_PERSON_AND_ORGANIZATION_ASSIGNMENT ( #157, #200, ( #81 ) ) ;
#157 = PERSON_AND_ORGANIZATION ( #30, #180 ) ;
#158 = COORDINATED_UNIVERSAL_TIME_OFFSET ( 1, 0, .AHEAD. ) ;
#159 = CC_DESIGN_APPROVAL ( #187, ( #31 ) ) ;
#160 = DATE_AND_TIME ( #103, #35 ) ;
#161 = DATE_TIME_ROLE ( 'classification_date' ) ;
#162 = AXIS2_PLACEMENT_3D ( 'NONE', #121, #98, #10 ) ;
#163 = ORIENTED_EDGE ( 'NONE', *, *, #119, .T. ) ;
#164 = DIRECTION ( 'NONE',  ( 3.491481338843133355E-15, -1.224646799147353207E-16, 1.000000000000000000 ) ) ;
#165 = APPLICATION_CONTEXT ( 'configuration controlled 3d designs of mechanical parts and assemblies' ) ;
#166 = CLOSED_SHELL ( 'NONE', ( #65, #178, #169, #215, #29, #1 ) ) ;
#167 = DIRECTION ( 'NONE',  ( 0.0000000000000000000, 1.000000000000000000, 0.0000000000000000000 ) ) ;
#168 = FACE_OUTER_BOUND ( 'NONE', #207, .T. ) ;
#169 = ADVANCED_FACE ( 'NONE', ( #213 ), #210, .F. ) ;
#170 = DIRECTION ( 'NONE',  ( 4.275831445896957731E-31, 1.000000000000000000, 1.224646799147353207E-16 ) ) ;
#171 = VERTEX_POINT ( 'NONE', #231 ) ;
#172 = APPROVAL_PERSON_ORGANIZATION ( #101, #187, #32 ) ;
#173 =( LENGTH_UNIT ( ) NAMED_UNIT ( * ) SI_UNIT ( .MILLI., .METRE. ) );
#174 = ADVANCED_BREP_SHAPE_REPRESENTATION ( '965844', ( #15, #97, #47 ), #17 ) ;
#175 = CARTESIAN_POINT ( 'NONE',  ( 1.319779946082704535E-13, -4.629164900776995227E-15, 37.79999999999999716 ) ) ;
#176 = AXIS2_PLACEMENT_3D ( 'NONE', #41, #66, #135 ) ;
#177 = PERSON_AND_ORGANIZATION_ROLE ( 'creator' ) ;
#178 = ADVANCED_FACE ( 'NONE', ( #154, #9 ), #74, .T. ) ;
#179 = CALENDAR_DATE ( 2021, 10, 11 ) ;
#180 = ORGANIZATION ( 'UNSPECIFIED', 'UNSPECIFIED', '' ) ;
#181 = EDGE_LOOP ( 'NONE', ( #240 ) ) ;
#182 = APPROVAL_STATUS ( 'not_yet_approved' ) ;
#183 = CARTESIAN_POINT ( 'NONE',  ( 3.491481338843133254E-12, -1.224646799147353249E-13, 1000.000000000000000 ) ) ;
#184 = TOROIDAL_SURFACE ( 'NONE', #204, 1.375000000000000000, 0.5000000000000000000 ) ;
#185 = EDGE_LOOP ( 'NONE', ( #3 ) ) ;
#186 = CALENDAR_DATE ( 2021, 10, 11 ) ;
#187 = APPROVAL ( #125, 'UNSPECIFIED' ) ;
#188 = DIRECTION ( 'NONE',  ( -4.275831445896958607E-31, -1.000000000000000000, -1.224646799147353207E-16 ) ) ;
#189 = APPROVAL_DATE_TIME ( #21, #90 ) ;
#190 = CARTESIAN_POINT ( 'NONE',  ( 4.366160779561277957E-14, -1.531443047902443047E-15, 12.50518148554091979 ) ) ;
#191 = LOCAL_TIME ( 13, 11, 27.00000000000000000, #13 ) ;
#192 = DIRECTION ( 'NONE',  ( -4.275831445896958607E-31, -1.000000000000000000, -1.224646799147353207E-16 ) ) ;
#193 = EDGE_CURVE ( 'NONE', #171, #171, #54, .T. ) ;
#194 = CARTESIAN_POINT ( 'NONE',  ( 1.326762908760390423E-13, -4.653657836759941941E-15, 38.00000000000000000 ) ) ;
#195 = VERTEX_POINT ( 'NONE', #26 ) ;
#196 = FACE_OUTER_BOUND ( 'NONE', #75, .T. ) ;
#197 = AXIS2_PLACEMENT_3D ( 'NONE', #190, #107, #167 ) ;
#198 = DIRECTION ( 'NONE',  ( 4.275831445896958607E-31, 1.000000000000000000, 1.224646799147353207E-16 ) ) ;
#199 = PERSON_AND_ORGANIZATION_ROLE ( 'design_supplier' ) ;
#200 = PERSON_AND_ORGANIZATION_ROLE ( 'design_owner' ) ;
#201 = PERSON_AND_ORGANIZATION_ROLE ( 'creator' ) ;
#202 = APPROVAL_DATE_TIME ( #160, #187 ) ;
#203 = EDGE_CURVE ( 'NONE', #64, #64, #224, .T. ) ;
#204 = AXIS2_PLACEMENT_3D ( 'NONE', #58, #22, #133 ) ;
#205 = DIRECTION ( 'NONE',  ( -3.491481338843133355E-15, 1.224646799147353207E-16, -1.000000000000000000 ) ) ;
#206 = FACE_OUTER_BOUND ( 'NONE', #185, .T. ) ;
#207 = EDGE_LOOP ( 'NONE', ( #76 ) ) ;
#208 = AXIS2_PLACEMENT_3D ( 'NONE', #227, #60, #192 ) ;
#209 = ORIENTED_EDGE ( 'NONE', *, *, #124, .F. ) ;
#210 = PLANE ( 'NONE',  #141 ) ;
#211 = CARTESIAN_POINT ( 'NONE',  ( 4.366160779561277957E-14, -1.531443047902443047E-15, 12.50518148554091979 ) ) ;
#212 = DIRECTION ( 'NONE',  ( 0.0000000000000000000, 1.000000000000000000, 0.0000000000000000000 ) ) ;
#213 = FACE_OUTER_BOUND ( 'NONE', #128, .T. ) ;
#214 = AXIS2_PLACEMENT_3D ( 'NONE', #223, #205, #91 ) ;
#215 = ADVANCED_FACE ( 'NONE', ( #95, #168 ), #84, .T. ) ;
#216 = DATE_AND_TIME ( #122, #77 ) ;
#217 = CIRCLE ( 'NONE', #69, 0.8749999999999998890 ) ;
#218 = MECHANICAL_CONTEXT ( 'NONE', #23, 'mechanical' ) ;
#219 = PERSON_AND_ORGANIZATION_ROLE ( 'classification_officer' ) ;
#220 = FACE_OUTER_BOUND ( 'NONE', #37, .T. ) ;
#221 = CC_DESIGN_APPROVAL ( #61, ( #238 ) ) ;
#222 = ORIENTED_EDGE ( 'NONE', *, *, #55, .T. ) ;
#223 = CARTESIAN_POINT ( 'NONE',  ( 0.0000000000000000000, 0.0000000000000000000, 0.0000000000000000000 ) ) ;
#224 = CIRCLE ( 'NONE', #162, 0.9999999999999991118 ) ;
#225 = ORIENTED_EDGE ( 'NONE', *, *, #82, .F. ) ;
#226 = CC_DESIGN_DATE_AND_TIME_ASSIGNMENT ( #237, #161, ( #131 ) ) ;
#227 = CARTESIAN_POINT ( 'NONE',  ( 4.366160779561277957E-14, 6.561449049145603771E-33, 12.50518148554091979 ) ) ;
#228 = DIRECTION ( 'NONE',  ( 0.0000000000000000000, -1.000000000000000000, 0.0000000000000000000 ) ) ;
#229 = CC_DESIGN_SECURITY_CLASSIFICATION ( #131, ( #238 ) ) ;
#230 = CARTESIAN_POINT ( 'NONE',  ( 4.366160779561277957E-14, 0.8749999999999984457, 12.50518148554091979 ) ) ;
#231 = CARTESIAN_POINT ( 'NONE',  ( 1.319779946082704535E-13, 0.9999999999999965583, 37.79999999999999716 ) ) ;
#232 = CARTESIAN_POINT ( 'NONE',  ( 1.326762908760390423E-13, -4.653657836759941941E-15, 38.00000000000000000 ) ) ;
#233 = AXIS2_PLACEMENT_3D ( 'NONE', #175, #117, #25 ) ;
#234 = PERSON_AND_ORGANIZATION ( #30, #180 ) ;
#235 = PRODUCT_RELATED_PRODUCT_CATEGORY ( 'detail', '', ( #81 ) ) ;
#236 = PERSON_AND_ORGANIZATION ( #30, #180 ) ;
#237 = DATE_AND_TIME ( #126, #27 ) ;
#238 = PRODUCT_DEFINITION_FORMATION_WITH_SPECIFIED_SOURCE ( 'ANY', '', #81, .NOT_KNOWN. ) ;
#239 = PERSON_AND_ORGANIZATION ( #30, #180 ) ;
#240 = ORIENTED_EDGE ( 'NONE', *, *, #193, .F. ) ;
#241 = ORIENTED_EDGE ( 'NONE', *, *, #55, .F. ) ;
#242 = PLANE ( 'NONE',  #50 ) ;
#243 = EDGE_LOOP ( 'NONE', ( #56 ) ) ;
ENDSEC;
END-ISO-10303-21;
