ISO-10303-21;
HEADER;
FILE_DESCRIPTION (( 'STEP AP203' ),
    '1' );
FILE_NAME ('965843.step',
    '2021-11-10T12:11:26',
    ( '' ),
    ( '' ),
    'SwSTEP 2.0',
    'SolidWorks 2019',
    '' );
FILE_SCHEMA (( 'CONFIG_CONTROL_DESIGN' ));
ENDSEC;

DATA;
#1 = APPROVAL ( #107, 'UNSPECIFIED' ) ;
#2 = CIRCLE ( 'NONE', #83, 0.9999999999999986677 ) ;
#3 = ORIENTED_EDGE ( 'NONE', *, *, #40, .T. ) ;
#4 = DIRECTION ( 'NONE',  ( -3.491481338843133355E-15, 1.224646799147353207E-16, -1.000000000000000000 ) ) ;
#5 = DIRECTION ( 'NONE',  ( 4.275831445896959482E-31, 1.000000000000000000, 1.224646799147353454E-16 ) ) ;
#6 = LOCAL_TIME ( 13, 11, 26.00000000000000000, #218 ) ;
#7 = CC_DESIGN_DATE_AND_TIME_ASSIGNMENT ( #216, #55, ( #97 ) ) ;
#8 = CARTESIAN_POINT ( 'NONE',  ( 4.508688625133298319E-14, -1.610475070337978768E-15, 12.91339745962155483 ) ) ;
#9 = VERTEX_POINT ( 'NONE', #118 ) ;
#10 = CC_DESIGN_PERSON_AND_ORGANIZATION_ASSIGNMENT ( #163, #13, ( #209 ) ) ;
#11 = AXIS2_PLACEMENT_3D ( 'NONE', #91, #239, #78 ) ;
#12 = AXIS2_PLACEMENT_3D ( 'NONE', #156, #213, #68 ) ;
#13 = PERSON_AND_ORGANIZATION_ROLE ( 'creator' ) ;
#14 = PRODUCT ( '965843', '965843', '', ( #178 ) ) ;
#15 = PERSON_AND_ORGANIZATION ( #117, #217 ) ;
#16 = CALENDAR_DATE ( 2021, 10, 11 ) ;
#17 = MANIFOLD_SOLID_BREP ( 'Corps-Déplacer/Copier1[2]', #125 ) ;
#18 = ORIENTED_EDGE ( 'NONE', *, *, #205, .T. ) ;
#19 = CARTESIAN_POINT ( 'NONE',  ( 1.319779946082704535E-13, -4.629164900776995227E-15, 37.79999999999999716 ) ) ;
#20 = AXIS2_PLACEMENT_3D ( 'NONE', #136, #120, #171 ) ;
#21 = APPROVAL_DATE_TIME ( #76, #119 ) ;
#22 = EDGE_LOOP ( 'NONE', ( #114 ) ) ;
#23 = ADVANCED_FACE ( 'NONE', ( #222, #203 ), #62, .T. ) ;
#24 = CARTESIAN_POINT ( 'NONE',  ( 4.443368774578096365E-14, -1.587143232709860667E-15, 12.72631397208143511 ) ) ;
#25 = CC_DESIGN_APPROVAL ( #119, ( #97 ) ) ;
#26 = FACE_OUTER_BOUND ( 'NONE', #133, .T. ) ;
#27 = AXIS2_PLACEMENT_3D ( 'NONE', #176, #231, #116 ) ;
#28 = CARTESIAN_POINT ( 'NONE',  ( 0.0000000000000000000, 0.0000000000000000000, 0.0000000000000000000 ) ) ;
#29 = FACE_OUTER_BOUND ( 'NONE', #225, .T. ) ;
#30 = PERSON_AND_ORGANIZATION_ROLE ( 'creator' ) ;
#31 = DESIGN_CONTEXT ( 'detailed design', #169, 'design' ) ;
#32 = AXIS2_PLACEMENT_3D ( 'NONE', #110, #168, #242 ) ;
#33 = LOCAL_TIME ( 13, 11, 26.00000000000000000, #197 ) ;
#34 = SECURITY_CLASSIFICATION_LEVEL ( 'unclassified' ) ;
#35 = AXIS2_PLACEMENT_3D ( 'NONE', #92, #112, #202 ) ;
#36 = PERSON_AND_ORGANIZATION ( #117, #217 ) ;
#37 = CC_DESIGN_SECURITY_CLASSIFICATION ( #97, ( #209 ) ) ;
#38 = DIRECTION ( 'NONE',  ( 0.0000000000000000000, -1.000000000000000000, 0.0000000000000000000 ) ) ;
#39 = CARTESIAN_POINT ( 'NONE',  ( 4.569162855858848405E-14, -1.632076083199780959E-15, 13.08660254037844517 ) ) ;
#40 = EDGE_CURVE ( 'NONE', #70, #70, #142, .T. ) ;
#41 = APPROVAL_ROLE ( '' ) ;
#42 = EDGE_LOOP ( 'NONE', ( #59 ) ) ;
#43 = APPLICATION_CONTEXT ( 'configuration controlled 3d designs of mechanical parts and assemblies' ) ;
#44 = DIRECTION ( 'NONE',  ( -4.275831445896958607E-31, -1.000000000000000000, -1.224646799147353207E-16 ) ) ;
#45 = LOCAL_TIME ( 13, 11, 26.00000000000000000, #113 ) ;
#46 = CARTESIAN_POINT ( 'NONE',  ( 1.319779946082704535E-13, 0.9999999999999963363, 37.79999999999999716 ) ) ;
#47 = APPROVAL ( #148, 'UNSPECIFIED' ) ;
#48 = CARTESIAN_POINT ( 'NONE',  ( 4.443368774578096365E-14, -0.8919872981077801022, 12.72631397208143511 ) ) ;
#49 = DIRECTION ( 'NONE',  ( 3.491481338843133355E-15, -1.224646799147353207E-16, 1.000000000000000000 ) ) ;
#50 = AXIS2_PLACEMENT_3D ( 'NONE', #99, #84, #227 ) ;
#51 = EDGE_CURVE ( 'NONE', #226, #226, #115, .T. ) ;
#52 = PERSON_AND_ORGANIZATION_ROLE ( 'design_owner' ) ;
#53 =( NAMED_UNIT ( * ) PLANE_ANGLE_UNIT ( ) SI_UNIT ( $, .RADIAN. ) );
#54 = AXIS2_PLACEMENT_3D ( 'NONE', #19, #167, #223 ) ;
#55 = DATE_TIME_ROLE ( 'classification_date' ) ;
#56 = CC_DESIGN_PERSON_AND_ORGANIZATION_ASSIGNMENT ( #238, #74, ( #97 ) ) ;
#57 = EDGE_CURVE ( 'NONE', #82, #82, #232, .T. ) ;
#58 = DIRECTION ( 'NONE',  ( 3.491481338843133355E-15, -1.247135059052984700E-16, 1.000000000000000000 ) ) ;
#59 = ORIENTED_EDGE ( 'NONE', *, *, #81, .F. ) ;
#60 = ORIENTED_EDGE ( 'NONE', *, *, #81, .T. ) ;
#61 = CARTESIAN_POINT ( 'NONE',  ( 1.663041344952592275E-15, -5.833163812986956847E-17, 0.4763139720814386635 ) ) ;
#62 = CONICAL_SURFACE ( 'NONE', #240, 1.099999999999998979, 0.5235987755982940417 ) ;
#63 = AXIS2_PLACEMENT_3D ( 'NONE', #194, #138, #141 ) ;
#64 = ORIENTED_EDGE ( 'NONE', *, *, #40, .F. ) ;
#65 =( LENGTH_UNIT ( ) NAMED_UNIT ( * ) SI_UNIT ( .MILLI., .METRE. ) );
#66 = PLANE ( 'NONE',  #63 ) ;
#67 = ADVANCED_FACE ( 'NONE', ( #182 ), #184, .F. ) ;
#68 = DIRECTION ( 'NONE',  ( 4.275831445896958607E-31, 1.000000000000000000, 1.224646799147353207E-16 ) ) ;
#69 = CARTESIAN_POINT ( 'NONE',  ( 3.491481338843133254E-12, -1.224646799147353249E-13, 1000.000000000000000 ) ) ;
#70 = VERTEX_POINT ( 'NONE', #210 ) ;
#71 = PERSON_AND_ORGANIZATION ( #117, #217 ) ;
#72 = COORDINATED_UNIVERSAL_TIME_OFFSET ( 1, 0, .AHEAD. ) ;
#73 = UNCERTAINTY_MEASURE_WITH_UNIT (LENGTH_MEASURE( 1.000000000000000082E-05 ), #65, 'distance_accuracy_value', 'NONE');
#74 = PERSON_AND_ORGANIZATION_ROLE ( 'classification_officer' ) ;
#75 = EDGE_CURVE ( 'NONE', #229, #229, #165, .T. ) ;
#76 = DATE_AND_TIME ( #186, #45 ) ;
#77 = CONICAL_SURFACE ( 'NONE', #149, 1732.050807568886512, 1.047197551196600074 ) ;
#78 = DIRECTION ( 'NONE',  ( 4.275831445896958607E-31, 1.000000000000000000, 1.224646799147353207E-16 ) ) ;
#79 = AXIS2_PLACEMENT_3D ( 'NONE', #102, #49, #44 ) ;
#80 = EDGE_LOOP ( 'NONE', ( #3 ) ) ;
#81 = EDGE_CURVE ( 'NONE', #9, #9, #228, .T. ) ;
#82 = VERTEX_POINT ( 'NONE', #173 ) ;
#83 = AXIS2_PLACEMENT_3D ( 'NONE', #8, #192, #86 ) ;
#84 = DIRECTION ( 'NONE',  ( -3.491481338843133355E-15, 1.224646799147353207E-16, -1.000000000000000000 ) ) ;
#85 = SHAPE_DEFINITION_REPRESENTATION ( #87, #103 ) ;
#86 = DIRECTION ( 'NONE',  ( 0.0000000000000000000, -1.000000000000000000, 0.0000000000000000000 ) ) ;
#87 = PRODUCT_DEFINITION_SHAPE ( 'NONE', 'NONE',  #127 ) ;
#88 = APPLICATION_PROTOCOL_DEFINITION ( 'international standard', 'config_control_design', 1994, #169 ) ;
#89 = CIRCLE ( 'NONE', #20, 0.8249999999999999556 ) ;
#90 = APPROVAL_DATE_TIME ( #104, #47 ) ;
#91 = CARTESIAN_POINT ( 'NONE',  ( 1.326762908760390423E-13, 5.999039130647368851E-33, 38.00000000000000000 ) ) ;
#92 = CARTESIAN_POINT ( 'NONE',  ( 4.356081741107019609E-14, -1.527907797106693491E-15, 12.47631397208143866 ) ) ;
#93 = MANIFOLD_SOLID_BREP ( 'Corps-Déplacer/Copier1[1]', #220 ) ;
#94 = CC_DESIGN_PERSON_AND_ORGANIZATION_ASSIGNMENT ( #181, #177, ( #209 ) ) ;
#95 = EDGE_LOOP ( 'NONE', ( #151 ) ) ;
#96 = EDGE_LOOP ( 'NONE', ( #60 ) ) ;
#97 = SECURITY_CLASSIFICATION ( '', '', #34 ) ;
#98 = FACE_OUTER_BOUND ( 'NONE', #170, .T. ) ;
#99 = CARTESIAN_POINT ( 'NONE',  ( 1.326762908760390423E-13, -4.653657836759941941E-15, 38.00000000000000000 ) ) ;
#100 = VERTEX_POINT ( 'NONE', #190 ) ;
#101 = FACE_OUTER_BOUND ( 'NONE', #96, .T. ) ;
#102 = CARTESIAN_POINT ( 'NONE',  ( 4.356081741107019609E-14, 6.186509103480140737E-33, 12.47631397208143866 ) ) ;
#103 = ADVANCED_BREP_SHAPE_REPRESENTATION ( '965843', ( #93, #17, #108 ), #160 ) ;
#104 = DATE_AND_TIME ( #236, #6 ) ;
#105 = APPROVAL_PERSON_ORGANIZATION ( #15, #47, #109 ) ;
#106 = COORDINATED_UNIVERSAL_TIME_OFFSET ( 1, 0, .AHEAD. ) ;
#107 = APPROVAL_STATUS ( 'not_yet_approved' ) ;
#108 = AXIS2_PLACEMENT_3D ( 'NONE', #214, #234, #180 ) ;
#109 = APPROVAL_ROLE ( '' ) ;
#110 = CARTESIAN_POINT ( 'NONE',  ( 1.326762908760390423E-13, -4.653657836759941941E-15, 38.00000000000000000 ) ) ;
#111 = EDGE_LOOP ( 'NONE', ( #130 ) ) ;
#112 = DIRECTION ( 'NONE',  ( -3.491481338843133355E-15, 1.224646799147353207E-16, -1.000000000000000000 ) ) ;
#113 = COORDINATED_UNIVERSAL_TIME_OFFSET ( 1, 0, .AHEAD. ) ;
#114 = ORIENTED_EDGE ( 'NONE', *, *, #124, .T. ) ;
#115 = CIRCLE ( 'NONE', #200, 0.8919872981077784369 ) ;
#116 = DIRECTION ( 'NONE',  ( 4.275831445896958607E-31, 1.000000000000000000, 1.224646799147353207E-16 ) ) ;
#117 = PERSON ( 'UNSPECIFIED', 'UNSPECIFIED', 'UNSPECIFIED', ('UNSPECIFIED'), ('UNSPECIFIED'), ('UNSPECIFIED') ) ;
#118 = CARTESIAN_POINT ( 'NONE',  ( 1.663041344952592670E-15, 0.8249999999999999556, 0.4763139720814387745 ) ) ;
#119 = APPROVAL ( #183, 'UNSPECIFIED' ) ;
#120 = DIRECTION ( 'NONE',  ( -3.491481338843133355E-15, 1.224646799147353207E-16, -1.000000000000000000 ) ) ;
#121 = LOCAL_TIME ( 13, 11, 26.00000000000000000, #72 ) ;
#122 = DIRECTION ( 'NONE',  ( 3.491481338843133355E-15, -1.224646799147353207E-16, 1.000000000000000000 ) ) ;
#123 = APPROVAL_DATE_TIME ( #161, #1 ) ;
#124 = EDGE_CURVE ( 'NONE', #100, #100, #89, .T. ) ;
#125 = CLOSED_SHELL ( 'NONE', ( #172, #233, #215 ) ) ;
#126 =( NAMED_UNIT ( * ) SI_UNIT ( $, .STERADIAN. ) SOLID_ANGLE_UNIT ( ) );
#127 = PRODUCT_DEFINITION ( 'UNKNOWN', '', #209, #31 ) ;
#128 = APPROVAL_ROLE ( '' ) ;
#129 = APPLICATION_PROTOCOL_DEFINITION ( 'international standard', 'config_control_design', 1994, #43 ) ;
#130 = ORIENTED_EDGE ( 'NONE', *, *, #57, .T. ) ;
#131 = EDGE_LOOP ( 'NONE', ( #18 ) ) ;
#132 = CC_DESIGN_PERSON_AND_ORGANIZATION_ASSIGNMENT ( #162, #30, ( #127 ) ) ;
#133 = EDGE_LOOP ( 'NONE', ( #150 ) ) ;
#134 = DIRECTION ( 'NONE',  ( -3.491481338843133355E-15, 1.224646799147353207E-16, -1.000000000000000000 ) ) ;
#135 = EDGE_LOOP ( 'NONE', ( #241 ) ) ;
#136 = CARTESIAN_POINT ( 'NONE',  ( 4.356081741107019609E-14, -1.527907797106693491E-15, 12.47631397208143866 ) ) ;
#137 = CYLINDRICAL_SURFACE ( 'NONE', #27, 0.8249999999999999556 ) ;
#138 = DIRECTION ( 'NONE',  ( 3.491481338843133355E-15, -1.224646799147353207E-16, 1.000000000000000000 ) ) ;
#139 = CC_DESIGN_PERSON_AND_ORGANIZATION_ASSIGNMENT ( #36, #52, ( #14 ) ) ;
#140 = FACE_OUTER_BOUND ( 'NONE', #207, .T. ) ;
#141 = DIRECTION ( 'NONE',  ( -4.275831445896958607E-31, -1.000000000000000000, -1.224646799147353207E-16 ) ) ;
#142 = CIRCLE ( 'NONE', #35, 0.8249999999999999556 ) ;
#143 = CC_DESIGN_APPROVAL ( #1, ( #127 ) ) ;
#144 = APPROVAL_PERSON_ORGANIZATION ( #71, #1, #128 ) ;
#145 = ADVANCED_FACE ( 'NONE', ( #230, #98 ), #188, .T. ) ;
#146 = CALENDAR_DATE ( 2021, 10, 11 ) ;
#147 = AXIS2_PLACEMENT_3D ( 'NONE', #61, #134, #206 ) ;
#148 = APPROVAL_STATUS ( 'not_yet_approved' ) ;
#149 = AXIS2_PLACEMENT_3D ( 'NONE', #69, #122, #158 ) ;
#150 = ORIENTED_EDGE ( 'NONE', *, *, #75, .F. ) ;
#151 = ORIENTED_EDGE ( 'NONE', *, *, #51, .F. ) ;
#152 = EDGE_LOOP ( 'NONE', ( #221 ) ) ;
#153 = LOCAL_TIME ( 13, 11, 26.00000000000000000, #106 ) ;
#154 = EDGE_LOOP ( 'NONE', ( #243 ) ) ;
#155 = VERTEX_POINT ( 'NONE', #174 ) ;
#156 = CARTESIAN_POINT ( 'NONE',  ( 4.356081741107019609E-14, -1.517883041479706208E-15, 12.47631397208143866 ) ) ;
#157 = FACE_OUTER_BOUND ( 'NONE', #22, .T. ) ;
#158 = DIRECTION ( 'NONE',  ( -4.554490559825206315E-31, -1.000000000000000000, -1.281975124255702555E-16 ) ) ;
#159 = FACE_OUTER_BOUND ( 'NONE', #80, .T. ) ;
#160 =( GEOMETRIC_REPRESENTATION_CONTEXT ( 3 ) GLOBAL_UNCERTAINTY_ASSIGNED_CONTEXT ( ( #73 ) ) GLOBAL_UNIT_ASSIGNED_CONTEXT ( ( #65, #53, #126 ) ) REPRESENTATION_CONTEXT ( 'NONE', 'WORKASPACE' ) );
#161 = DATE_AND_TIME ( #16, #153 ) ;
#162 = PERSON_AND_ORGANIZATION ( #117, #217 ) ;
#163 = PERSON_AND_ORGANIZATION ( #117, #217 ) ;
#164 = PERSON_AND_ORGANIZATION ( #117, #217 ) ;
#165 = CIRCLE ( 'NONE', #54, 1.000000000000000888 ) ;
#166 = APPROVAL_PERSON_ORGANIZATION ( #164, #119, #41 ) ;
#167 = DIRECTION ( 'NONE',  ( -3.491481338843133355E-15, 1.224646799147353207E-16, -1.000000000000000000 ) ) ;
#168 = DIRECTION ( 'NONE',  ( -3.491481338843133355E-15, 1.224646799147353207E-16, -1.000000000000000000 ) ) ;
#169 = APPLICATION_CONTEXT ( 'configuration controlled 3d designs of mechanical parts and assemblies' ) ;
#170 = EDGE_LOOP ( 'NONE', ( #204 ) ) ;
#171 = DIRECTION ( 'NONE',  ( 0.0000000000000000000, 1.000000000000000000, 0.0000000000000000000 ) ) ;
#172 = ADVANCED_FACE ( 'NONE', ( #101 ), #77, .T. ) ;
#173 = CARTESIAN_POINT ( 'NONE',  ( 1.326762908760390423E-13, 0.7999999999999964917, 38.00000000000000000 ) ) ;
#174 = CARTESIAN_POINT ( 'NONE',  ( 4.508688625133298319E-14, -1.000000000000000222, 12.91339745962155483 ) ) ;
#175 = FACE_OUTER_BOUND ( 'NONE', #95, .T. ) ;
#176 = CARTESIAN_POINT ( 'NONE',  ( 0.0000000000000000000, 0.0000000000000000000, 0.0000000000000000000 ) ) ;
#177 = PERSON_AND_ORGANIZATION_ROLE ( 'design_supplier' ) ;
#178 = MECHANICAL_CONTEXT ( 'NONE', #43, 'mechanical' ) ;
#179 = ADVANCED_FACE ( 'NONE', ( #140, #175 ), #196, .F. ) ;
#180 = DIRECTION ( 'NONE',  ( 1.000000000000000000, 0.0000000000000000000, 0.0000000000000000000 ) ) ;
#181 = PERSON_AND_ORGANIZATION ( #117, #217 ) ;
#182 = FACE_OUTER_BOUND ( 'NONE', #135, .T. ) ;
#183 = APPROVAL_STATUS ( 'not_yet_approved' ) ;
#184 = PLANE ( 'NONE',  #11 ) ;
#185 = DIRECTION ( 'NONE',  ( 3.491481338843133355E-15, -1.247135059052984700E-16, 1.000000000000000000 ) ) ;
#186 = CALENDAR_DATE ( 2021, 10, 11 ) ;
#187 = DIRECTION ( 'NONE',  ( 0.0000000000000000000, -1.000000000000000000, 0.0000000000000000000 ) ) ;
#188 = CYLINDRICAL_SURFACE ( 'NONE', #201, 0.9999999999999986677 ) ;
#189 = ADVANCED_FACE ( 'NONE', ( #26, #191 ), #224, .T. ) ;
#190 = CARTESIAN_POINT ( 'NONE',  ( 4.356081741107019609E-14, 0.8249999999999985123, 12.47631397208143866 ) ) ;
#191 = FACE_BOUND ( 'NONE', #111, .T. ) ;
#192 = DIRECTION ( 'NONE',  ( -3.491481338843133355E-15, 1.247135059052984700E-16, -1.000000000000000000 ) ) ;
#193 = CC_DESIGN_APPROVAL ( #47, ( #209 ) ) ;
#194 = CARTESIAN_POINT ( 'NONE',  ( 4.356081741107019609E-14, 6.186509103480140737E-33, 12.47631397208143866 ) ) ;
#195 = DATE_TIME_ROLE ( 'creation_date' ) ;
#196 = TOROIDAL_SURFACE ( 'NONE', #12, 1.324999999999999512, 0.4999999999999995559 ) ;
#197 = COORDINATED_UNIVERSAL_TIME_OFFSET ( 1, 0, .AHEAD. ) ;
#198 = CALENDAR_DATE ( 2021, 10, 11 ) ;
#199 = CC_DESIGN_DATE_AND_TIME_ASSIGNMENT ( #235, #195, ( #127 ) ) ;
#200 = AXIS2_PLACEMENT_3D ( 'NONE', #24, #185, #38 ) ;
#201 = AXIS2_PLACEMENT_3D ( 'NONE', #28, #4, #5 ) ;
#202 = DIRECTION ( 'NONE',  ( 0.0000000000000000000, 1.000000000000000000, 0.0000000000000000000 ) ) ;
#203 = FACE_OUTER_BOUND ( 'NONE', #131, .T. ) ;
#204 = ORIENTED_EDGE ( 'NONE', *, *, #205, .F. ) ;
#205 = EDGE_CURVE ( 'NONE', #155, #155, #2, .T. ) ;
#206 = DIRECTION ( 'NONE',  ( 4.668921077302389522E-31, 1.000000000000000000, 1.314184451497581013E-16 ) ) ;
#207 = EDGE_LOOP ( 'NONE', ( #219 ) ) ;
#208 = ADVANCED_FACE ( 'NONE', ( #157 ), #212, .F. ) ;
#209 = PRODUCT_DEFINITION_FORMATION_WITH_SPECIFIED_SOURCE ( 'ANY', '', #14, .NOT_KNOWN. ) ;
#210 = CARTESIAN_POINT ( 'NONE',  ( 4.356081741107019609E-14, 0.8249999999999985123, 12.47631397208143866 ) ) ;
#211 = FACE_OUTER_BOUND ( 'NONE', #42, .T. ) ;
#212 = PLANE ( 'NONE',  #79 ) ;
#213 = DIRECTION ( 'NONE',  ( -3.491481338843133355E-15, 1.224646799147353207E-16, -1.000000000000000000 ) ) ;
#214 = CARTESIAN_POINT ( 'NONE',  ( 0.0000000000000000000, 0.0000000000000000000, 0.0000000000000000000 ) ) ;
#215 = ADVANCED_FACE ( 'NONE', ( #29 ), #66, .T. ) ;
#216 = DATE_AND_TIME ( #146, #121 ) ;
#217 = ORGANIZATION ( 'UNSPECIFIED', 'UNSPECIFIED', '' ) ;
#218 = COORDINATED_UNIVERSAL_TIME_OFFSET ( 1, 0, .AHEAD. ) ;
#219 = ORIENTED_EDGE ( 'NONE', *, *, #124, .F. ) ;
#220 = CLOSED_SHELL ( 'NONE', ( #145, #189, #67, #23, #208, #179 ) ) ;
#221 = ORIENTED_EDGE ( 'NONE', *, *, #51, .T. ) ;
#222 = FACE_BOUND ( 'NONE', #152, .T. ) ;
#223 = DIRECTION ( 'NONE',  ( 0.0000000000000000000, 1.000000000000000000, 0.0000000000000000000 ) ) ;
#224 = CONICAL_SURFACE ( 'NONE', #50, 0.8000000000000011546, 0.7853981633974507215 ) ;
#225 = EDGE_LOOP ( 'NONE', ( #64 ) ) ;
#226 = VERTEX_POINT ( 'NONE', #48 ) ;
#227 = DIRECTION ( 'NONE',  ( 0.0000000000000000000, 1.000000000000000000, 0.0000000000000000000 ) ) ;
#228 = CIRCLE ( 'NONE', #147, 0.8250000000000000666 ) ;
#229 = VERTEX_POINT ( 'NONE', #46 ) ;
#230 = FACE_OUTER_BOUND ( 'NONE', #154, .T. ) ;
#231 = DIRECTION ( 'NONE',  ( -3.491481338843133355E-15, 1.224646799147353207E-16, -1.000000000000000000 ) ) ;
#232 = CIRCLE ( 'NONE', #32, 0.8000000000000011546 ) ;
#233 = ADVANCED_FACE ( 'NONE', ( #159, #211 ), #137, .T. ) ;
#234 = DIRECTION ( 'NONE',  ( 0.0000000000000000000, 0.0000000000000000000, 1.000000000000000000 ) ) ;
#235 = DATE_AND_TIME ( #198, #33 ) ;
#236 = CALENDAR_DATE ( 2021, 10, 11 ) ;
#237 = PRODUCT_RELATED_PRODUCT_CATEGORY ( 'detail', '', ( #14 ) ) ;
#238 = PERSON_AND_ORGANIZATION ( #117, #217 ) ;
#239 = DIRECTION ( 'NONE',  ( -3.491481338843133355E-15, 1.224646799147353207E-16, -1.000000000000000000 ) ) ;
#240 = AXIS2_PLACEMENT_3D ( 'NONE', #39, #58, #187 ) ;
#241 = ORIENTED_EDGE ( 'NONE', *, *, #57, .F. ) ;
#242 = DIRECTION ( 'NONE',  ( 0.0000000000000000000, 1.000000000000000000, 0.0000000000000000000 ) ) ;
#243 = ORIENTED_EDGE ( 'NONE', *, *, #75, .T. ) ;
ENDSEC;
END-ISO-10303-21;
