ISO-10303-21;
HEADER;
FILE_DESCRIPTION (( 'STEP AP203' ),
    '1' );
FILE_NAME ('965842.step',
    '2021-11-10T12:11:26',
    ( '' ),
    ( '' ),
    'SwSTEP 2.0',
    'SolidWorks 2019',
    '' );
FILE_SCHEMA (( 'CONFIG_CONTROL_DESIGN' ));
ENDSEC;

DATA;
#1 = CIRCLE ( 'NONE', #158, 0.8669872981077786367 ) ;
#2 = AXIS2_PLACEMENT_3D ( 'NONE', #156, #101, #104 ) ;
#3 = APPLICATION_PROTOCOL_DEFINITION ( 'international standard', 'config_control_design', 1994, #152 ) ;
#4 = ORIENTED_EDGE ( 'NONE', *, *, #178, .F. ) ;
#5 = SHAPE_DEFINITION_REPRESENTATION ( #29, #28 ) ;
#6 = CARTESIAN_POINT ( 'NONE',  ( 4.579241894313106753E-14, -1.635676252010081554E-15, 13.11547005383792808 ) ) ;
#7 = DIRECTION ( 'NONE',  ( 0.0000000000000000000, -1.000000000000000000, 0.0000000000000000000 ) ) ;
#8 = VERTEX_POINT ( 'NONE', #64 ) ;
#9 = CONICAL_SURFACE ( 'NONE', #119, 1732.050807568886512, 1.047197551196600074 ) ;
#10 = DIRECTION ( 'NONE',  ( -3.491481338843133355E-15, 1.247135059052984700E-16, -1.000000000000000000 ) ) ;
#11 = CC_DESIGN_PERSON_AND_ORGANIZATION_ASSIGNMENT ( #145, #49, ( #177 ) ) ;
#12 = DIRECTION ( 'NONE',  ( 0.0000000000000000000, 1.000000000000000000, 0.0000000000000000000 ) ) ;
#13 = PERSON_AND_ORGANIZATION ( #60, #70 ) ;
#14 = MANIFOLD_SOLID_BREP ( 'Corps-Déplacer/Copier1[2]', #68 ) ;
#15 = APPROVAL_STATUS ( 'not_yet_approved' ) ;
#16 = PERSON_AND_ORGANIZATION_ROLE ( 'classification_officer' ) ;
#17 = EDGE_LOOP ( 'NONE', ( #227 ) ) ;
#18 = DIRECTION ( 'NONE',  ( 0.0000000000000000000, 0.0000000000000000000, 1.000000000000000000 ) ) ;
#19 = DATE_AND_TIME ( #35, #209 ) ;
#20 = ADVANCED_FACE ( 'NONE', ( #56 ), #74, .F. ) ;
#21 = CARTESIAN_POINT ( 'NONE',  ( 4.351042221879890435E-14, 5.999039130647407852E-33, 12.46188021535169810 ) ) ;
#22 = DIRECTION ( 'NONE',  ( -3.491481338843133355E-15, 1.224646799147353207E-16, -1.000000000000000000 ) ) ;
#23 = ORIENTED_EDGE ( 'NONE', *, *, #42, .T. ) ;
#24 = CARTESIAN_POINT ( 'NONE',  ( 4.351042221879890435E-14, 5.999039130647407852E-33, 12.46188021535169810 ) ) ;
#25 = VERTEX_POINT ( 'NONE', #99 ) ;
#26 = DIRECTION ( 'NONE',  ( 3.491481338843133355E-15, -1.224646799147353207E-16, 1.000000000000000000 ) ) ;
#27 = DIRECTION ( 'NONE',  ( -3.491481338843133355E-15, 1.224646799147353207E-16, -1.000000000000000000 ) ) ;
#28 = ADVANCED_BREP_SHAPE_REPRESENTATION ( '965842', ( #174, #14, #172 ), #45 ) ;
#29 = PRODUCT_DEFINITION_SHAPE ( 'NONE', 'NONE',  #212 ) ;
#30 = PRODUCT_DEFINITION_FORMATION_WITH_SPECIFIED_SOURCE ( 'ANY', '', #177, .NOT_KNOWN. ) ;
#31 = DIRECTION ( 'NONE',  ( -4.275831445896958607E-31, -1.000000000000000000, -1.224646799147353207E-16 ) ) ;
#32 = COORDINATED_UNIVERSAL_TIME_OFFSET ( 1, 0, .AHEAD. ) ;
#33 = SECURITY_CLASSIFICATION_LEVEL ( 'unclassified' ) ;
#34 = PERSON_AND_ORGANIZATION_ROLE ( 'creator' ) ;
#35 = CALENDAR_DATE ( 2021, 10, 11 ) ;
#36 = ADVANCED_FACE ( 'NONE', ( #231 ), #92, .F. ) ;
#37 = AXIS2_PLACEMENT_3D ( 'NONE', #211, #121, #63 ) ;
#38 = CARTESIAN_POINT ( 'NONE',  ( 4.438329255350967822E-14, -1.585343148304710566E-15, 12.71188021535169632 ) ) ;
#39 = APPROVAL ( #162, 'UNSPECIFIED' ) ;
#40 = DIRECTION ( 'NONE',  ( -3.491481338843133355E-15, 1.224646799147353207E-16, -1.000000000000000000 ) ) ;
#41 = CYLINDRICAL_SURFACE ( 'NONE', #112, 0.7999999999999999334 ) ;
#42 = EDGE_CURVE ( 'NONE', #44, #44, #1, .T. ) ;
#43 = FACE_OUTER_BOUND ( 'NONE', #167, .T. ) ;
#44 = VERTEX_POINT ( 'NONE', #123 ) ;
#45 =( GEOMETRIC_REPRESENTATION_CONTEXT ( 3 ) GLOBAL_UNCERTAINTY_ASSIGNED_CONTEXT ( ( #131 ) ) GLOBAL_UNIT_ASSIGNED_CONTEXT ( ( #203, #146, #126 ) ) REPRESENTATION_CONTEXT ( 'NONE', 'WORKASPACE' ) );
#46 = COORDINATED_UNIVERSAL_TIME_OFFSET ( 1, 0, .AHEAD. ) ;
#47 = EDGE_CURVE ( 'NONE', #179, #179, #219, .T. ) ;
#48 = EDGE_LOOP ( 'NONE', ( #242 ) ) ;
#49 = PERSON_AND_ORGANIZATION_ROLE ( 'design_owner' ) ;
#50 = EDGE_CURVE ( 'NONE', #83, #83, #86, .T. ) ;
#51 = COORDINATED_UNIVERSAL_TIME_OFFSET ( 1, 0, .AHEAD. ) ;
#52 = ORIENTED_EDGE ( 'NONE', *, *, #50, .T. ) ;
#53 = APPROVAL_PERSON_ORGANIZATION ( #108, #39, #125 ) ;
#54 = DIRECTION ( 'NONE',  ( -3.491481338843133355E-15, 1.224646799147353207E-16, -1.000000000000000000 ) ) ;
#55 = DESIGN_CONTEXT ( 'detailed design', #213, 'design' ) ;
#56 = FACE_OUTER_BOUND ( 'NONE', #91, .T. ) ;
#57 = EDGE_LOOP ( 'NONE', ( #151 ) ) ;
#58 = DIRECTION ( 'NONE',  ( -3.491481338843133355E-15, 1.224646799147353207E-16, -1.000000000000000000 ) ) ;
#59 = FACE_OUTER_BOUND ( 'NONE', #205, .T. ) ;
#60 = PERSON ( 'UNSPECIFIED', 'UNSPECIFIED', 'UNSPECIFIED', ('UNSPECIFIED'), ('UNSPECIFIED'), ('UNSPECIFIED') ) ;
#61 = ADVANCED_FACE ( 'NONE', ( #229, #210 ), #65, .T. ) ;
#62 = TOROIDAL_SURFACE ( 'NONE', #2, 1.300000000000000266, 0.5000000000000004441 ) ;
#63 = DIRECTION ( 'NONE',  ( 0.0000000000000000000, 1.000000000000000000, 0.0000000000000000000 ) ) ;
#64 = CARTESIAN_POINT ( 'NONE',  ( 4.351042221879890435E-14, 0.7999999999999983791, 12.46188021535169810 ) ) ;
#65 = CONICAL_SURFACE ( 'NONE', #97, 0.8000000000000011546, 0.7853981633974507215 ) ;
#66 = CALENDAR_DATE ( 2021, 10, 11 ) ;
#67 = APPLICATION_PROTOCOL_DEFINITION ( 'international standard', 'config_control_design', 1994, #213 ) ;
#68 = CLOSED_SHELL ( 'NONE', ( #127, #200, #237 ) ) ;
#69 = CALENDAR_DATE ( 2021, 10, 11 ) ;
#70 = ORGANIZATION ( 'UNSPECIFIED', 'UNSPECIFIED', '' ) ;
#71 = EDGE_LOOP ( 'NONE', ( #221 ) ) ;
#72 = PERSON_AND_ORGANIZATION ( #60, #70 ) ;
#73 = EDGE_LOOP ( 'NONE', ( #170 ) ) ;
#74 = PLANE ( 'NONE',  #128 ) ;
#75 = APPROVAL_PERSON_ORGANIZATION ( #13, #241, #130 ) ;
#76 = DIRECTION ( 'NONE',  ( 0.0000000000000000000, 1.000000000000000000, 0.0000000000000000000 ) ) ;
#77 = APPROVAL ( #105, 'UNSPECIFIED' ) ;
#78 = AXIS2_PLACEMENT_3D ( 'NONE', #21, #153, #228 ) ;
#79 = CARTESIAN_POINT ( 'NONE',  ( 0.0000000000000000000, 0.0000000000000000000, 0.0000000000000000000 ) ) ;
#80 = DIRECTION ( 'NONE',  ( 0.0000000000000000000, 1.000000000000000000, 0.0000000000000000000 ) ) ;
#81 = CC_DESIGN_APPROVAL ( #39, ( #30 ) ) ;
#82 = FACE_OUTER_BOUND ( 'NONE', #111, .T. ) ;
#83 = VERTEX_POINT ( 'NONE', #238 ) ;
#84 = CC_DESIGN_DATE_AND_TIME_ASSIGNMENT ( #150, #223, ( #115 ) ) ;
#85 = EDGE_LOOP ( 'NONE', ( #198 ) ) ;
#86 = CIRCLE ( 'NONE', #181, 1.000000000000000888 ) ;
#87 = APPROVAL_DATE_TIME ( #196, #39 ) ;
#88 = PERSON_AND_ORGANIZATION_ROLE ( 'design_supplier' ) ;
#89 = DIRECTION ( 'NONE',  ( 1.000000000000000000, 0.0000000000000000000, 0.0000000000000000000 ) ) ;
#90 = AXIS2_PLACEMENT_3D ( 'NONE', #24, #194, #31 ) ;
#91 = EDGE_LOOP ( 'NONE', ( #134 ) ) ;
#92 = PLANE ( 'NONE',  #78 ) ;
#93 = CIRCLE ( 'NONE', #37, 0.7999999999999999334 ) ;
#94 = ADVANCED_FACE ( 'NONE', ( #171, #195 ), #62, .F. ) ;
#95 = EDGE_LOOP ( 'NONE', ( #106 ) ) ;
#96 = CARTESIAN_POINT ( 'NONE',  ( 1.326762908760390423E-13, 0.7999999999999964917, 38.00000000000000000 ) ) ;
#97 = AXIS2_PLACEMENT_3D ( 'NONE', #154, #136, #113 ) ;
#98 = ADVANCED_FACE ( 'NONE', ( #59, #182 ), #117, .T. ) ;
#99 = CARTESIAN_POINT ( 'NONE',  ( 4.518767663587557297E-14, -1.000000000000001110, 12.94226497308103774 ) ) ;
#100 = DIRECTION ( 'NONE',  ( -4.554490559825206315E-31, -1.000000000000000000, -1.281975124255702555E-16 ) ) ;
#101 = DIRECTION ( 'NONE',  ( -3.491481338843133355E-15, 1.224646799147353207E-16, -1.000000000000000000 ) ) ;
#102 = AXIS2_PLACEMENT_3D ( 'NONE', #233, #180, #12 ) ;
#103 = CC_DESIGN_APPROVAL ( #77, ( #115 ) ) ;
#104 = DIRECTION ( 'NONE',  ( 4.275831445896958607E-31, 1.000000000000000000, 1.224646799147353207E-16 ) ) ;
#105 = APPROVAL_STATUS ( 'not_yet_approved' ) ;
#106 = ORIENTED_EDGE ( 'NONE', *, *, #50, .F. ) ;
#107 = CC_DESIGN_APPROVAL ( #241, ( #212 ) ) ;
#108 = PERSON_AND_ORGANIZATION ( #60, #70 ) ;
#109 = APPROVAL_DATE_TIME ( #110, #241 ) ;
#110 = DATE_AND_TIME ( #69, #124 ) ;
#111 = EDGE_LOOP ( 'NONE', ( #202 ) ) ;
#112 = AXIS2_PLACEMENT_3D ( 'NONE', #79, #27, #118 ) ;
#113 = DIRECTION ( 'NONE',  ( 0.0000000000000000000, 1.000000000000000000, 0.0000000000000000000 ) ) ;
#114 = CARTESIAN_POINT ( 'NONE',  ( 1.326762908760390423E-13, 5.999039130647368851E-33, 38.00000000000000000 ) ) ;
#115 = SECURITY_CLASSIFICATION ( '', '', #33 ) ;
#116 = DIRECTION ( 'NONE',  ( 0.0000000000000000000, -1.000000000000000000, 0.0000000000000000000 ) ) ;
#117 = CYLINDRICAL_SURFACE ( 'NONE', #163, 0.9999999999999995559 ) ;
#118 = DIRECTION ( 'NONE',  ( 4.275831445896958607E-31, 1.000000000000000000, 1.224646799147353207E-16 ) ) ;
#119 = AXIS2_PLACEMENT_3D ( 'NONE', #216, #26, #100 ) ;
#120 = FACE_OUTER_BOUND ( 'NONE', #185, .T. ) ;
#121 = DIRECTION ( 'NONE',  ( -3.491481338843133355E-15, 1.224646799147353207E-16, -1.000000000000000000 ) ) ;
#122 = CC_DESIGN_PERSON_AND_ORGANIZATION_ASSIGNMENT ( #165, #16, ( #115 ) ) ;
#123 = CARTESIAN_POINT ( 'NONE',  ( 4.438329255350967822E-14, -0.8669872981077803020, 12.71188021535169632 ) ) ;
#124 = LOCAL_TIME ( 13, 11, 26.00000000000000000, #239 ) ;
#125 = APPROVAL_ROLE ( '' ) ;
#126 =( NAMED_UNIT ( * ) SI_UNIT ( $, .STERADIAN. ) SOLID_ANGLE_UNIT ( ) );
#127 = ADVANCED_FACE ( 'NONE', ( #120 ), #9, .T. ) ;
#128 = AXIS2_PLACEMENT_3D ( 'NONE', #114, #22, #173 ) ;
#129 = DATE_TIME_ROLE ( 'creation_date' ) ;
#130 = APPROVAL_ROLE ( '' ) ;
#131 = UNCERTAINTY_MEASURE_WITH_UNIT (LENGTH_MEASURE( 1.000000000000000082E-05 ), #203, 'distance_accuracy_value', 'NONE');
#132 = CC_DESIGN_DATE_AND_TIME_ASSIGNMENT ( #186, #129, ( #212 ) ) ;
#133 = AXIS2_PLACEMENT_3D ( 'NONE', #176, #58, #137 ) ;
#134 = ORIENTED_EDGE ( 'NONE', *, *, #222, .F. ) ;
#135 = AXIS2_PLACEMENT_3D ( 'NONE', #138, #10, #140 ) ;
#136 = DIRECTION ( 'NONE',  ( -3.491481338843133355E-15, 1.224646799147353207E-16, -1.000000000000000000 ) ) ;
#137 = DIRECTION ( 'NONE',  ( 4.814824860968089633E-31, 1.000000000000000000, 1.355252715606880543E-16 ) ) ;
#138 = CARTESIAN_POINT ( 'NONE',  ( 4.518767663587557297E-14, -1.614075239148279561E-15, 12.94226497308103774 ) ) ;
#139 = FACE_OUTER_BOUND ( 'NONE', #85, .T. ) ;
#140 = DIRECTION ( 'NONE',  ( 0.0000000000000000000, -1.000000000000000000, 0.0000000000000000000 ) ) ;
#141 = ADVANCED_FACE ( 'NONE', ( #236, #214 ), #155, .T. ) ;
#142 = PLANE ( 'NONE',  #90 ) ;
#143 = DIRECTION ( 'NONE',  ( -3.491481338843133355E-15, 1.224646799147353207E-16, -1.000000000000000000 ) ) ;
#144 = LOCAL_TIME ( 13, 11, 26.00000000000000000, #32 ) ;
#145 = PERSON_AND_ORGANIZATION ( #60, #70 ) ;
#146 =( NAMED_UNIT ( * ) PLANE_ANGLE_UNIT ( ) SI_UNIT ( $, .RADIAN. ) );
#147 = PERSON_AND_ORGANIZATION ( #60, #70 ) ;
#148 = EDGE_LOOP ( 'NONE', ( #23 ) ) ;
#149 = APPROVAL_PERSON_ORGANIZATION ( #168, #77, #225 ) ;
#150 = DATE_AND_TIME ( #66, #144 ) ;
#151 = ORIENTED_EDGE ( 'NONE', *, *, #187, .F. ) ;
#152 = APPLICATION_CONTEXT ( 'configuration controlled 3d designs of mechanical parts and assemblies' ) ;
#153 = DIRECTION ( 'NONE',  ( 3.491481338843133355E-15, -1.224646799147353207E-16, 1.000000000000000000 ) ) ;
#154 = CARTESIAN_POINT ( 'NONE',  ( 1.326762908760390423E-13, -4.653657836759941941E-15, 38.00000000000000000 ) ) ;
#155 = CONICAL_SURFACE ( 'NONE', #189, 1.099999999999999867, 0.5235987755982952629 ) ;
#156 = CARTESIAN_POINT ( 'NONE',  ( 4.351042221879890435E-14, -1.517883041479706208E-15, 12.46188021535169810 ) ) ;
#157 = CARTESIAN_POINT ( 'NONE',  ( 4.351042221879890435E-14, 0.7999999999999983791, 12.46188021535169810 ) ) ;
#158 = AXIS2_PLACEMENT_3D ( 'NONE', #38, #226, #116 ) ;
#159 = CC_DESIGN_PERSON_AND_ORGANIZATION_ASSIGNMENT ( #147, #88, ( #30 ) ) ;
#160 = CARTESIAN_POINT ( 'NONE',  ( 1.326762908760390423E-13, -4.653657836759941941E-15, 38.00000000000000000 ) ) ;
#161 = VERTEX_POINT ( 'NONE', #157 ) ;
#162 = APPROVAL_STATUS ( 'not_yet_approved' ) ;
#163 = AXIS2_PLACEMENT_3D ( 'NONE', #232, #143, #235 ) ;
#164 = PRODUCT_RELATED_PRODUCT_CATEGORY ( 'detail', '', ( #177 ) ) ;
#165 = PERSON_AND_ORGANIZATION ( #60, #70 ) ;
#166 = ORIENTED_EDGE ( 'NONE', *, *, #47, .T. ) ;
#167 = EDGE_LOOP ( 'NONE', ( #183 ) ) ;
#168 = PERSON_AND_ORGANIZATION ( #60, #70 ) ;
#169 = CC_DESIGN_PERSON_AND_ORGANIZATION_ASSIGNMENT ( #201, #34, ( #30 ) ) ;
#170 = ORIENTED_EDGE ( 'NONE', *, *, #187, .T. ) ;
#171 = FACE_OUTER_BOUND ( 'NONE', #207, .T. ) ;
#172 = AXIS2_PLACEMENT_3D ( 'NONE', #197, #18, #89 ) ;
#173 = DIRECTION ( 'NONE',  ( 4.275831445896958607E-31, 1.000000000000000000, 1.224646799147353207E-16 ) ) ;
#174 = MANIFOLD_SOLID_BREP ( 'Corps-Déplacer/Copier1[1]', #208 ) ;
#175 = CARTESIAN_POINT ( 'NONE',  ( 1.319779946082704535E-13, -4.629164900776995227E-15, 37.79999999999999716 ) ) ;
#176 = CARTESIAN_POINT ( 'NONE',  ( 1.612646152681301720E-15, -5.656401273199472895E-17, 0.4618802153516981535 ) ) ;
#177 = PRODUCT ( '965842', '965842', '', ( #188 ) ) ;
#178 = EDGE_CURVE ( 'NONE', #161, #161, #199, .T. ) ;
#179 = VERTEX_POINT ( 'NONE', #193 ) ;
#180 = DIRECTION ( 'NONE',  ( -3.491481338843133355E-15, 1.224646799147353207E-16, -1.000000000000000000 ) ) ;
#181 = AXIS2_PLACEMENT_3D ( 'NONE', #175, #54, #76 ) ;
#182 = FACE_OUTER_BOUND ( 'NONE', #57, .T. ) ;
#183 = ORIENTED_EDGE ( 'NONE', *, *, #47, .F. ) ;
#184 = CALENDAR_DATE ( 2021, 10, 11 ) ;
#185 = EDGE_LOOP ( 'NONE', ( #166 ) ) ;
#186 = DATE_AND_TIME ( #220, #230 ) ;
#187 = EDGE_CURVE ( 'NONE', #25, #25, #224, .T. ) ;
#188 = MECHANICAL_CONTEXT ( 'NONE', #152, 'mechanical' ) ;
#189 = AXIS2_PLACEMENT_3D ( 'NONE', #6, #215, #7 ) ;
#190 = APPROVAL_DATE_TIME ( #19, #77 ) ;
#191 = CIRCLE ( 'NONE', #234, 0.8000000000000011546 ) ;
#192 = VERTEX_POINT ( 'NONE', #96 ) ;
#193 = CARTESIAN_POINT ( 'NONE',  ( 1.612646152681302114E-15, 0.7999999999999999334, 0.4618802153516982645 ) ) ;
#194 = DIRECTION ( 'NONE',  ( 3.491481338843133355E-15, -1.224646799147353207E-16, 1.000000000000000000 ) ) ;
#195 = FACE_OUTER_BOUND ( 'NONE', #17, .T. ) ;
#196 = DATE_AND_TIME ( #184, #240 ) ;
#197 = CARTESIAN_POINT ( 'NONE',  ( 0.0000000000000000000, 0.0000000000000000000, 0.0000000000000000000 ) ) ;
#198 = ORIENTED_EDGE ( 'NONE', *, *, #206, .F. ) ;
#199 = CIRCLE ( 'NONE', #102, 0.7999999999999999334 ) ;
#200 = ADVANCED_FACE ( 'NONE', ( #82, #43 ), #41, .T. ) ;
#201 = PERSON_AND_ORGANIZATION ( #60, #70 ) ;
#202 = ORIENTED_EDGE ( 'NONE', *, *, #206, .T. ) ;
#203 =( LENGTH_UNIT ( ) NAMED_UNIT ( * ) SI_UNIT ( .MILLI., .METRE. ) );
#204 = CC_DESIGN_SECURITY_CLASSIFICATION ( #115, ( #30 ) ) ;
#205 = EDGE_LOOP ( 'NONE', ( #52 ) ) ;
#206 = EDGE_CURVE ( 'NONE', #8, #8, #93, .T. ) ;
#207 = EDGE_LOOP ( 'NONE', ( #4 ) ) ;
#208 = CLOSED_SHELL ( 'NONE', ( #98, #61, #20, #141, #36, #94 ) ) ;
#209 = LOCAL_TIME ( 13, 11, 26.00000000000000000, #51 ) ;
#210 = FACE_BOUND ( 'NONE', #48, .T. ) ;
#211 = CARTESIAN_POINT ( 'NONE',  ( 4.351042221879890435E-14, -1.526140171708818615E-15, 12.46188021535169810 ) ) ;
#212 = PRODUCT_DEFINITION ( 'UNKNOWN', '', #30, #55 ) ;
#213 = APPLICATION_CONTEXT ( 'configuration controlled 3d designs of mechanical parts and assemblies' ) ;
#214 = FACE_OUTER_BOUND ( 'NONE', #73, .T. ) ;
#215 = DIRECTION ( 'NONE',  ( 3.491481338843133355E-15, -1.247135059052984700E-16, 1.000000000000000000 ) ) ;
#216 = CARTESIAN_POINT ( 'NONE',  ( 3.491481338843133254E-12, -1.224646799147353249E-13, 1000.000000000000000 ) ) ;
#217 = CC_DESIGN_PERSON_AND_ORGANIZATION_ASSIGNMENT ( #72, #218, ( #212 ) ) ;
#218 = PERSON_AND_ORGANIZATION_ROLE ( 'creator' ) ;
#219 = CIRCLE ( 'NONE', #133, 0.8000000000000000444 ) ;
#220 = CALENDAR_DATE ( 2021, 10, 11 ) ;
#221 = ORIENTED_EDGE ( 'NONE', *, *, #178, .T. ) ;
#222 = EDGE_CURVE ( 'NONE', #192, #192, #191, .T. ) ;
#223 = DATE_TIME_ROLE ( 'classification_date' ) ;
#224 = CIRCLE ( 'NONE', #135, 0.9999999999999995559 ) ;
#225 = APPROVAL_ROLE ( '' ) ;
#226 = DIRECTION ( 'NONE',  ( 3.491481338843133355E-15, -1.247135059052984700E-16, 1.000000000000000000 ) ) ;
#227 = ORIENTED_EDGE ( 'NONE', *, *, #42, .F. ) ;
#228 = DIRECTION ( 'NONE',  ( -4.275831445896958607E-31, -1.000000000000000000, -1.224646799147353207E-16 ) ) ;
#229 = FACE_OUTER_BOUND ( 'NONE', #95, .T. ) ;
#230 = LOCAL_TIME ( 13, 11, 26.00000000000000000, #46 ) ;
#231 = FACE_OUTER_BOUND ( 'NONE', #71, .T. ) ;
#232 = CARTESIAN_POINT ( 'NONE',  ( 0.0000000000000000000, 0.0000000000000000000, 0.0000000000000000000 ) ) ;
#233 = CARTESIAN_POINT ( 'NONE',  ( 4.351042221879890435E-14, -1.526140171708818615E-15, 12.46188021535169810 ) ) ;
#234 = AXIS2_PLACEMENT_3D ( 'NONE', #160, #40, #80 ) ;
#235 = DIRECTION ( 'NONE',  ( 4.275831445896958607E-31, 1.000000000000000000, 1.224646799147353207E-16 ) ) ;
#236 = FACE_BOUND ( 'NONE', #148, .T. ) ;
#237 = ADVANCED_FACE ( 'NONE', ( #139 ), #142, .T. ) ;
#238 = CARTESIAN_POINT ( 'NONE',  ( 1.319779946082704535E-13, 0.9999999999999963363, 37.79999999999999716 ) ) ;
#239 = COORDINATED_UNIVERSAL_TIME_OFFSET ( 1, 0, .AHEAD. ) ;
#240 = LOCAL_TIME ( 13, 11, 26.00000000000000000, #243 ) ;
#241 = APPROVAL ( #15, 'UNSPECIFIED' ) ;
#242 = ORIENTED_EDGE ( 'NONE', *, *, #222, .T. ) ;
#243 = COORDINATED_UNIVERSAL_TIME_OFFSET ( 1, 0, .AHEAD. ) ;
ENDSEC;
END-ISO-10303-21;
