ISO-10303-21;
HEADER;
FILE_DESCRIPTION (( 'STEP AP203' ),
    '1' );
FILE_NAME ('965141.step',
    '2021-11-10T12:11:24',
    ( '' ),
    ( '' ),
    'SwSTEP 2.0',
    'SolidWorks 2019',
    '' );
FILE_SCHEMA (( 'CONFIG_CONTROL_DESIGN' ));
ENDSEC;

DATA;
#1 = APPROVAL_ROLE ( '' ) ;
#2 = CARTESIAN_POINT ( 'NONE',  ( 4.056605157091052876E-14, 5.436629212149211933E-33, 11.61857894516247747 ) ) ;
#3 = EDGE_CURVE ( 'NONE', #47, #47, #28, .T. ) ;
#4 = APPROVAL_ROLE ( '' ) ;
#5 = DIRECTION ( 'NONE',  ( 0.0000000000000000000, -1.000000000000000000, 0.0000000000000000000 ) ) ;
#6 = CONICAL_SURFACE ( 'NONE', #183, 0.7999999999999991562, 0.7853981633974512766 ) ;
#7 = DATE_AND_TIME ( #202, #213 ) ;
#8 = DIRECTION ( 'NONE',  ( -3.491481338843133355E-15, 1.224646799147353207E-16, -1.000000000000000000 ) ) ;
#9 = EDGE_LOOP ( 'NONE', ( #205 ) ) ;
#10 = CIRCLE ( 'NONE', #45, 0.7249999999999998668 ) ;
#11 = FACE_OUTER_BOUND ( 'NONE', #184, .T. ) ;
#12 = DIRECTION ( 'NONE',  ( -3.491481338843133355E-15, 1.224646799147353207E-16, -1.000000000000000000 ) ) ;
#13 = APPROVAL_PERSON_ORGANIZATION ( #110, #126, #1 ) ;
#14 = DIRECTION ( 'NONE',  ( 3.491481338843133355E-15, -1.224646799147353207E-16, 1.000000000000000000 ) ) ;
#15 = DIRECTION ( 'NONE',  ( 0.0000000000000000000, 0.0000000000000000000, 1.000000000000000000 ) ) ;
#16 = CALENDAR_DATE ( 2021, 10, 11 ) ;
#17 = EDGE_LOOP ( 'NONE', ( #241 ) ) ;
#18 = ORIENTED_EDGE ( 'NONE', *, *, #3, .F. ) ;
#19 = COORDINATED_UNIVERSAL_TIME_OFFSET ( 1, 0, .AHEAD. ) ;
#20 = DIRECTION ( 'NONE',  ( 3.491481338843133355E-15, -1.224646799147353207E-16, 1.000000000000000000 ) ) ;
#21 = EDGE_CURVE ( 'NONE', #116, #116, #10, .T. ) ;
#22 = DIRECTION ( 'NONE',  ( -4.275831445896958607E-31, -1.000000000000000000, -1.224646799147353207E-16 ) ) ;
#23 = DATE_AND_TIME ( #206, #222 ) ;
#24 = CC_DESIGN_PERSON_AND_ORGANIZATION_ASSIGNMENT ( #52, #243, ( #145 ) ) ;
#25 = PLANE ( 'NONE',  #140 ) ;
#26 = VERTEX_POINT ( 'NONE', #99 ) ;
#27 = CC_DESIGN_PERSON_AND_ORGANIZATION_ASSIGNMENT ( #73, #164, ( #145 ) ) ;
#28 = CIRCLE ( 'NONE', #212, 0.7249999999999999778 ) ;
#29 = DIRECTION ( 'NONE',  ( -4.275831445896958607E-31, -1.000000000000000000, -1.224646799147353207E-16 ) ) ;
#30 = FACE_OUTER_BOUND ( 'NONE', #109, .T. ) ;
#31 = CARTESIAN_POINT ( 'NONE',  ( 4.143892190562129632E-14, -1.480172090365021292E-15, 11.86857894516247391 ) ) ;
#32 = APPLICATION_PROTOCOL_DEFINITION ( 'international standard', 'config_control_design', 1994, #146 ) ;
#33 = EDGE_CURVE ( 'NONE', #26, #26, #85, .T. ) ;
#34 = AXIS2_PLACEMENT_3D ( 'NONE', #173, #117, #152 ) ;
#35 = DATE_AND_TIME ( #162, #83 ) ;
#36 = EDGE_LOOP ( 'NONE', ( #182 ) ) ;
#37 = AXIS2_PLACEMENT_3D ( 'NONE', #31, #236, #44 ) ;
#38 = CYLINDRICAL_SURFACE ( 'NONE', #78, 0.7249999999999999778 ) ;
#39 = DIRECTION ( 'NONE',  ( 0.0000000000000000000, 1.000000000000000000, 0.0000000000000000000 ) ) ;
#40 = DIRECTION ( 'NONE',  ( -3.491481338843133355E-15, 1.224646799147353207E-16, -1.000000000000000000 ) ) ;
#41 = APPROVAL_PERSON_ORGANIZATION ( #113, #103, #121 ) ;
#42 = CARTESIAN_POINT ( 'NONE',  ( 4.056605157091052876E-14, 0.7249999999999984235, 11.61857894516247747 ) ) ;
#43 = CARTESIAN_POINT ( 'NONE',  ( 0.0000000000000000000, 0.0000000000000000000, 0.0000000000000000000 ) ) ;
#44 = DIRECTION ( 'NONE',  ( 0.0000000000000000000, -1.000000000000000000, 0.0000000000000000000 ) ) ;
#45 = AXIS2_PLACEMENT_3D ( 'NONE', #149, #147, #39 ) ;
#46 = FACE_OUTER_BOUND ( 'NONE', #9, .T. ) ;
#47 = VERTEX_POINT ( 'NONE', #237 ) ;
#48 = AXIS2_PLACEMENT_3D ( 'NONE', #2, #20, #22 ) ;
#49 = DIRECTION ( 'NONE',  ( 1.000000000000000000, 0.0000000000000000000, 0.0000000000000000000 ) ) ;
#50 = PERSON_AND_ORGANIZATION ( #128, #221 ) ;
#51 = ORIENTED_EDGE ( 'NONE', *, *, #217, .F. ) ;
#52 = PERSON_AND_ORGANIZATION ( #128, #221 ) ;
#53 = DIRECTION ( 'NONE',  ( 5.312910191413064694E-31, 1.000000000000000000, 1.495451272393799296E-16 ) ) ;
#55 = DESIGN_CONTEXT ( 'detailed design', #215, 'design' ) ;
#54 = DATE_AND_TIME ( #16, #240 ) ;
#56 = FACE_OUTER_BOUND ( 'NONE', #91, .T. ) ;
#57 = APPROVAL_DATE_TIME ( #7, #103 ) ;
#58 = ORIENTED_EDGE ( 'NONE', *, *, #66, .F. ) ;
#59 = ORIENTED_EDGE ( 'NONE', *, *, #33, .T. ) ;
#60 = AXIS2_PLACEMENT_3D ( 'NONE', #187, #125, #69 ) ;
#61 = FACE_OUTER_BOUND ( 'NONE', #36, .T. ) ;
#62 = PRODUCT_DEFINITION_SHAPE ( 'NONE', 'NONE',  #67 ) ;
#63 = DIRECTION ( 'NONE',  ( 0.0000000000000000000, 1.000000000000000000, 0.0000000000000000000 ) ) ;
#64 = AXIS2_PLACEMENT_3D ( 'NONE', #133, #214, #79 ) ;
#65 =( LENGTH_UNIT ( ) NAMED_UNIT ( * ) SI_UNIT ( .MILLI., .METRE. ) );
#66 = EDGE_CURVE ( 'NONE', #196, #196, #119, .T. ) ;
#67 = PRODUCT_DEFINITION ( 'UNKNOWN', '', #145, #55 ) ;
#68 = COORDINATED_UNIVERSAL_TIME_OFFSET ( 1, 0, .AHEAD. ) ;
#69 = DIRECTION ( 'NONE',  ( 0.0000000000000000000, 1.000000000000000000, 0.0000000000000000000 ) ) ;
#70 = EDGE_LOOP ( 'NONE', ( #163 ) ) ;
#71 = COORDINATED_UNIVERSAL_TIME_OFFSET ( 1, 0, .AHEAD. ) ;
#72 = FACE_OUTER_BOUND ( 'NONE', #105, .T. ) ;
#73 = PERSON_AND_ORGANIZATION ( #128, #221 ) ;
#74 = DIRECTION ( 'NONE',  ( 0.0000000000000000000, 1.000000000000000000, 0.0000000000000000000 ) ) ;
#75 = ADVANCED_FACE ( 'NONE', ( #161 ), #227, .T. ) ;
#76 = ADVANCED_BREP_SHAPE_REPRESENTATION ( '965141', ( #92, #170, #114 ), #82 ) ;
#77 = SHAPE_DEFINITION_REPRESENTATION ( #62, #76 ) ;
#78 = AXIS2_PLACEMENT_3D ( 'NONE', #43, #12, #127 ) ;
#79 = DIRECTION ( 'NONE',  ( -4.554490559825206315E-31, -1.000000000000000000, -1.281975124255702555E-16 ) ) ;
#80 = DIRECTION ( 'NONE',  ( -3.491481338843133355E-15, 1.224646799147353207E-16, -1.000000000000000000 ) ) ;
#81 = VERTEX_POINT ( 'NONE', #153 ) ;
#82 =( GEOMETRIC_REPRESENTATION_CONTEXT ( 3 ) GLOBAL_UNCERTAINTY_ASSIGNED_CONTEXT ( ( #132 ) ) GLOBAL_UNIT_ASSIGNED_CONTEXT ( ( #65, #151, #129 ) ) REPRESENTATION_CONTEXT ( 'NONE', 'WORKASPACE' ) );
#83 = LOCAL_TIME ( 13, 11, 24.00000000000000000, #68 ) ;
#84 = FACE_OUTER_BOUND ( 'NONE', #199, .T. ) ;
#85 = CIRCLE ( 'NONE', #228, 0.9999999999999991118 ) ;
#86 = CC_DESIGN_PERSON_AND_ORGANIZATION_ASSIGNMENT ( #50, #231, ( #67 ) ) ;
#87 = CIRCLE ( 'NONE', #178, 0.9999999999999981126 ) ;
#88 = APPROVAL_STATUS ( 'not_yet_approved' ) ;
#89 = DIRECTION ( 'NONE',  ( 0.0000000000000000000, 1.000000000000000000, 0.0000000000000000000 ) ) ;
#90 = APPROVAL_DATE_TIME ( #54, #126 ) ;
#91 = EDGE_LOOP ( 'NONE', ( #18 ) ) ;
#92 = MANIFOLD_SOLID_BREP ( 'Corps-Déplacer/Copier1[1]', #208 ) ;
#93 = PERSON_AND_ORGANIZATION ( #128, #221 ) ;
#94 = CARTESIAN_POINT ( 'NONE',  ( 1.461460575867429462E-15, -5.126113653837021656E-17, 0.4185789451624763458 ) ) ;
#95 = CALENDAR_DATE ( 2021, 10, 11 ) ;
#96 = CLOSED_SHELL ( 'NONE', ( #230, #180, #75 ) ) ;
#97 = EDGE_LOOP ( 'NONE', ( #207 ) ) ;
#98 = CARTESIAN_POINT ( 'NONE',  ( 1.047444401652940007E-13, 5.999039130647368851E-33, 30.00000000000000000 ) ) ;
#99 = CARTESIAN_POINT ( 'NONE',  ( 1.040461438975253740E-13, 0.9999999999999954481, 29.80000000000000071 ) ) ;
#100 = DIRECTION ( 'NONE',  ( 0.0000000000000000000, -1.000000000000000000, 0.0000000000000000000 ) ) ;
#101 = CARTESIAN_POINT ( 'NONE',  ( 1.047444401652940007E-13, 0.7999999999999954925, 30.00000000000000000 ) ) ;
#102 = VERTEX_POINT ( 'NONE', #42 ) ;
#103 = APPROVAL ( #88, 'UNSPECIFIED' ) ;
#104 = SECURITY_CLASSIFICATION_LEVEL ( 'unclassified' ) ;
#105 = EDGE_LOOP ( 'NONE', ( #58 ) ) ;
#106 = CIRCLE ( 'NONE', #37, 0.7919872981077795693 ) ;
#107 = CC_DESIGN_SECURITY_CLASSIFICATION ( #160, ( #145 ) ) ;
#108 = DATE_TIME_ROLE ( 'creation_date' ) ;
#109 = EDGE_LOOP ( 'NONE', ( #59 ) ) ;
#110 = PERSON_AND_ORGANIZATION ( #128, #221 ) ;
#111 = EDGE_LOOP ( 'NONE', ( #191 ) ) ;
#112 = CC_DESIGN_DATE_AND_TIME_ASSIGNMENT ( #23, #188, ( #160 ) ) ;
#113 = PERSON_AND_ORGANIZATION ( #128, #221 ) ;
#114 = AXIS2_PLACEMENT_3D ( 'NONE', #238, #15, #49 ) ;
#115 = DIRECTION ( 'NONE',  ( -3.491481338843133355E-15, 1.224646799147353207E-16, -1.000000000000000000 ) ) ;
#116 = VERTEX_POINT ( 'NONE', #209 ) ;
#117 = DIRECTION ( 'NONE',  ( -3.491481338843133355E-15, 1.224646799147353207E-16, -1.000000000000000000 ) ) ;
#118 = CARTESIAN_POINT ( 'NONE',  ( 4.330160502568430497E-14, -1.546705953716743775E-15, 12.40207259421637076 ) ) ;
#119 = CIRCLE ( 'NONE', #60, 0.7999999999999991562 ) ;
#120 = EDGE_LOOP ( 'NONE', ( #189 ) ) ;
#121 = APPROVAL_ROLE ( '' ) ;
#122 = CARTESIAN_POINT ( 'NONE',  ( 1.040461438975253740E-13, -3.649447461459112464E-15, 29.80000000000000071 ) ) ;
#123 = PERSON_AND_ORGANIZATION ( #128, #221 ) ;
#124 = FACE_BOUND ( 'NONE', #70, .T. ) ;
#125 = DIRECTION ( 'NONE',  ( -3.491481338843133355E-15, 1.224646799147353207E-16, -1.000000000000000000 ) ) ;
#126 = APPROVAL ( #200, 'UNSPECIFIED' ) ;
#127 = DIRECTION ( 'NONE',  ( 4.275831445896957731E-31, 1.000000000000000000, 1.224646799147352961E-16 ) ) ;
#128 = PERSON ( 'UNSPECIFIED', 'UNSPECIFIED', 'UNSPECIFIED', ('UNSPECIFIED'), ('UNSPECIFIED'), ('UNSPECIFIED') ) ;
#129 =( NAMED_UNIT ( * ) SI_UNIT ( $, .STERADIAN. ) SOLID_ANGLE_UNIT ( ) );
#130 = CARTESIAN_POINT ( 'NONE',  ( 4.056605157091052876E-14, -1.422865551583405945E-15, 11.61857894516247747 ) ) ;
#131 = ADVANCED_FACE ( 'NONE', ( #142, #124 ), #6, .T. ) ;
#132 = UNCERTAINTY_MEASURE_WITH_UNIT (LENGTH_MEASURE( 1.000000000000000082E-05 ), #65, 'distance_accuracy_value', 'NONE');
#133 = CARTESIAN_POINT ( 'NONE',  ( 3.491481338843133254E-12, -1.224646799147353249E-13, 1000.000000000000000 ) ) ;
#134 = EDGE_CURVE ( 'NONE', #235, #235, #87, .T. ) ;
#135 = FACE_OUTER_BOUND ( 'NONE', #111, .T. ) ;
#136 = PRODUCT ( '965141', '965141', '', ( #218 ) ) ;
#137 = AXIS2_PLACEMENT_3D ( 'NONE', #175, #14, #29 ) ;
#138 = CC_DESIGN_APPROVAL ( #126, ( #67 ) ) ;
#139 = PERSON_AND_ORGANIZATION_ROLE ( 'design_owner' ) ;
#140 = AXIS2_PLACEMENT_3D ( 'NONE', #98, #229, #150 ) ;
#141 = APPROVAL ( #186, 'UNSPECIFIED' ) ;
#142 = FACE_OUTER_BOUND ( 'NONE', #97, .T. ) ;
#143 = DATE_AND_TIME ( #95, #176 ) ;
#144 = EDGE_LOOP ( 'NONE', ( #168 ) ) ;
#145 = PRODUCT_DEFINITION_FORMATION_WITH_SPECIFIED_SOURCE ( 'ANY', '', #136, .NOT_KNOWN. ) ;
#146 = APPLICATION_CONTEXT ( 'configuration controlled 3d designs of mechanical parts and assemblies' ) ;
#147 = DIRECTION ( 'NONE',  ( -3.491481338843133355E-15, 1.224646799147353207E-16, -1.000000000000000000 ) ) ;
#148 = PERSON_AND_ORGANIZATION_ROLE ( 'classification_officer' ) ;
#149 = CARTESIAN_POINT ( 'NONE',  ( 4.056605157091052876E-14, -1.422865551583405945E-15, 11.61857894516247747 ) ) ;
#150 = DIRECTION ( 'NONE',  ( 4.275831445896958607E-31, 1.000000000000000000, 1.224646799147353207E-16 ) ) ;
#151 =( NAMED_UNIT ( * ) PLANE_ANGLE_UNIT ( ) SI_UNIT ( $, .RADIAN. ) );
#152 = DIRECTION ( 'NONE',  ( 4.275831445896958607E-31, 1.000000000000000000, 1.224646799147352961E-16 ) ) ;
#153 = CARTESIAN_POINT ( 'NONE',  ( 4.143892190562129632E-14, -0.7919872981077810126, 11.86857894516247391 ) ) ;
#154 = AXIS2_PLACEMENT_3D ( 'NONE', #216, #210, #234 ) ;
#155 = CC_DESIGN_DATE_AND_TIME_ASSIGNMENT ( #35, #108, ( #67 ) ) ;
#156 = CYLINDRICAL_SURFACE ( 'NONE', #34, 0.9999999999999981126 ) ;
#157 = AXIS2_PLACEMENT_3D ( 'NONE', #118, #195, #100 ) ;
#158 = PERSON_AND_ORGANIZATION ( #128, #221 ) ;
#159 = ADVANCED_FACE ( 'NONE', ( #72 ), #25, .F. ) ;
#160 = SECURITY_CLASSIFICATION ( '', '', #104 ) ;
#161 = FACE_OUTER_BOUND ( 'NONE', #169, .T. ) ;
#162 = CALENDAR_DATE ( 2021, 10, 11 ) ;
#163 = ORIENTED_EDGE ( 'NONE', *, *, #66, .T. ) ;
#164 = PERSON_AND_ORGANIZATION_ROLE ( 'design_supplier' ) ;
#165 = CARTESIAN_POINT ( 'NONE',  ( 1.047444401652940007E-13, -3.673940397442059178E-15, 30.00000000000000000 ) ) ;
#166 = CONICAL_SURFACE ( 'NONE', #64, 1732.050807568886512, 1.047197551196600074 ) ;
#167 = COORDINATED_UNIVERSAL_TIME_OFFSET ( 1, 0, .AHEAD. ) ;
#168 = ORIENTED_EDGE ( 'NONE', *, *, #224, .T. ) ;
#169 = EDGE_LOOP ( 'NONE', ( #51 ) ) ;
#170 = MANIFOLD_SOLID_BREP ( 'Corps-Déplacer/Copier1[2]', #96 ) ;
#171 = FACE_OUTER_BOUND ( 'NONE', #120, .T. ) ;
#172 = TOROIDAL_SURFACE ( 'NONE', #154, 1.224999999999999645, 0.4999999999999997780 ) ;
#173 = CARTESIAN_POINT ( 'NONE',  ( 0.0000000000000000000, 0.0000000000000000000, 0.0000000000000000000 ) ) ;
#174 = CARTESIAN_POINT ( 'NONE',  ( 4.269686271842880410E-14, -0.9999999999999995559, 12.22886751345948042 ) ) ;
#175 = CARTESIAN_POINT ( 'NONE',  ( 4.056605157091052876E-14, 5.436629212149211933E-33, 11.61857894516247747 ) ) ;
#176 = LOCAL_TIME ( 13, 11, 24.00000000000000000, #204 ) ;
#177 = CC_DESIGN_APPROVAL ( #103, ( #160 ) ) ;
#178 = AXIS2_PLACEMENT_3D ( 'NONE', #232, #225, #5 ) ;
#179 = CC_DESIGN_APPROVAL ( #141, ( #145 ) ) ;
#180 = ADVANCED_FACE ( 'NONE', ( #201, #56 ), #38, .T. ) ;
#181 = PRODUCT_RELATED_PRODUCT_CATEGORY ( 'detail', '', ( #136 ) ) ;
#182 = ORIENTED_EDGE ( 'NONE', *, *, #134, .F. ) ;
#183 = AXIS2_PLACEMENT_3D ( 'NONE', #165, #8, #74 ) ;
#184 = EDGE_LOOP ( 'NONE', ( #203 ) ) ;
#185 = ADVANCED_FACE ( 'NONE', ( #135 ), #198, .F. ) ;
#186 = APPROVAL_STATUS ( 'not_yet_approved' ) ;
#187 = CARTESIAN_POINT ( 'NONE',  ( 1.047444401652940007E-13, -3.673940397442059178E-15, 30.00000000000000000 ) ) ;
#188 = DATE_TIME_ROLE ( 'classification_date' ) ;
#189 = ORIENTED_EDGE ( 'NONE', *, *, #3, .T. ) ;
#190 = ADVANCED_FACE ( 'NONE', ( #192, #11 ), #193, .T. ) ;
#191 = ORIENTED_EDGE ( 'NONE', *, *, #21, .T. ) ;
#192 = FACE_BOUND ( 'NONE', #144, .T. ) ;
#193 = CONICAL_SURFACE ( 'NONE', #157, 1.099999999999998090, 0.5235987755982924874 ) ;
#194 = APPROVAL_PERSON_ORGANIZATION ( #123, #141, #4 ) ;
#195 = DIRECTION ( 'NONE',  ( 3.491481338843133355E-15, -1.247135059052984700E-16, 1.000000000000000000 ) ) ;
#196 = VERTEX_POINT ( 'NONE', #101 ) ;
#197 = CC_DESIGN_PERSON_AND_ORGANIZATION_ASSIGNMENT ( #158, #139, ( #136 ) ) ;
#198 = PLANE ( 'NONE',  #137 ) ;
#199 = EDGE_LOOP ( 'NONE', ( #233 ) ) ;
#200 = APPROVAL_STATUS ( 'not_yet_approved' ) ;
#201 = FACE_OUTER_BOUND ( 'NONE', #17, .T. ) ;
#202 = CALENDAR_DATE ( 2021, 10, 11 ) ;
#203 = ORIENTED_EDGE ( 'NONE', *, *, #134, .T. ) ;
#204 = COORDINATED_UNIVERSAL_TIME_OFFSET ( 1, 0, .AHEAD. ) ;
#205 = ORIENTED_EDGE ( 'NONE', *, *, #21, .F. ) ;
#206 = CALENDAR_DATE ( 2021, 10, 11 ) ;
#207 = ORIENTED_EDGE ( 'NONE', *, *, #33, .F. ) ;
#208 = CLOSED_SHELL ( 'NONE', ( #211, #131, #159, #190, #185, #242 ) ) ;
#209 = CARTESIAN_POINT ( 'NONE',  ( 4.056605157091052876E-14, 0.7249999999999984235, 11.61857894516247747 ) ) ;
#210 = DIRECTION ( 'NONE',  ( -3.491481338843133355E-15, 1.224646799147353207E-16, -1.000000000000000000 ) ) ;
#211 = ADVANCED_FACE ( 'NONE', ( #30, #61 ), #156, .T. ) ;
#212 = AXIS2_PLACEMENT_3D ( 'NONE', #94, #40, #53 ) ;
#213 = LOCAL_TIME ( 13, 11, 24.00000000000000000, #167 ) ;
#214 = DIRECTION ( 'NONE',  ( 3.491481338843133355E-15, -1.224646799147353207E-16, 1.000000000000000000 ) ) ;
#215 = APPLICATION_CONTEXT ( 'configuration controlled 3d designs of mechanical parts and assemblies' ) ;
#216 = CARTESIAN_POINT ( 'NONE',  ( 4.056605157091052876E-14, -1.517883041479706208E-15, 11.61857894516247747 ) ) ;
#217 = EDGE_CURVE ( 'NONE', #102, #102, #219, .T. ) ;
#218 = MECHANICAL_CONTEXT ( 'NONE', #146, 'mechanical' ) ;
#219 = CIRCLE ( 'NONE', #239, 0.7249999999999998668 ) ;
#220 = APPLICATION_PROTOCOL_DEFINITION ( 'international standard', 'config_control_design', 1994, #215 ) ;
#221 = ORGANIZATION ( 'UNSPECIFIED', 'UNSPECIFIED', '' ) ;
#222 = LOCAL_TIME ( 13, 11, 24.00000000000000000, #19 ) ;
#223 = CC_DESIGN_PERSON_AND_ORGANIZATION_ASSIGNMENT ( #93, #148, ( #160 ) ) ;
#224 = EDGE_CURVE ( 'NONE', #81, #81, #106, .T. ) ;
#225 = DIRECTION ( 'NONE',  ( -3.491481338843133355E-15, 1.247135059052984700E-16, -1.000000000000000000 ) ) ;
#226 = APPROVAL_DATE_TIME ( #143, #141 ) ;
#227 = PLANE ( 'NONE',  #48 ) ;
#228 = AXIS2_PLACEMENT_3D ( 'NONE', #122, #115, #89 ) ;
#229 = DIRECTION ( 'NONE',  ( -3.491481338843133355E-15, 1.224646799147353207E-16, -1.000000000000000000 ) ) ;
#230 = ADVANCED_FACE ( 'NONE', ( #171 ), #166, .T. ) ;
#231 = PERSON_AND_ORGANIZATION_ROLE ( 'creator' ) ;
#232 = CARTESIAN_POINT ( 'NONE',  ( 4.269686271842880410E-14, -1.525104940854941584E-15, 12.22886751345948042 ) ) ;
#233 = ORIENTED_EDGE ( 'NONE', *, *, #224, .F. ) ;
#234 = DIRECTION ( 'NONE',  ( 4.275831445896958607E-31, 1.000000000000000000, 1.224646799147353207E-16 ) ) ;
#235 = VERTEX_POINT ( 'NONE', #174 ) ;
#236 = DIRECTION ( 'NONE',  ( 3.491481338843133355E-15, -1.247135059052984700E-16, 1.000000000000000000 ) ) ;
#237 = CARTESIAN_POINT ( 'NONE',  ( 1.461460575867429856E-15, 0.7249999999999999778, 0.4185789451624764568 ) ) ;
#238 = CARTESIAN_POINT ( 'NONE',  ( 0.0000000000000000000, 0.0000000000000000000, 0.0000000000000000000 ) ) ;
#239 = AXIS2_PLACEMENT_3D ( 'NONE', #130, #80, #63 ) ;
#240 = LOCAL_TIME ( 13, 11, 24.00000000000000000, #71 ) ;
#241 = ORIENTED_EDGE ( 'NONE', *, *, #217, .T. ) ;
#242 = ADVANCED_FACE ( 'NONE', ( #46, #84 ), #172, .F. ) ;
#243 = PERSON_AND_ORGANIZATION_ROLE ( 'creator' ) ;
ENDSEC;
END-ISO-10303-21;
