ISO-10303-21;
HEADER;
FILE_DESCRIPTION (( 'STEP AP203' ),
    '1' );
FILE_NAME ('965840.step',
    '2021-11-10T12:11:25',
    ( '' ),
    ( '' ),
    'SwSTEP 2.0',
    'SolidWorks 2019',
    '' );
FILE_SCHEMA (( 'CONFIG_CONTROL_DESIGN' ));
ENDSEC;

DATA;
#1 = CONICAL_SURFACE ( 'NONE', #185, 1732.050807568886512, 1.047197551196600074 ) ;
#2 = ADVANCED_FACE ( 'NONE', ( #77, #20 ), #116, .T. ) ;
#3 = CARTESIAN_POINT ( 'NONE',  ( 3.491481338843133254E-12, -1.224646799147353249E-13, 1000.000000000000000 ) ) ;
#4 = DIRECTION ( 'NONE',  ( 3.491481338843133355E-15, -1.224646799147353207E-16, 1.000000000000000000 ) ) ;
#5 = ORIENTED_EDGE ( 'NONE', *, *, #103, .T. ) ;
#6 = CC_DESIGN_APPROVAL ( #135, ( #200 ) ) ;
#7 = DIRECTION ( 'NONE',  ( -3.491481338843133355E-15, 1.224646799147353207E-16, -1.000000000000000000 ) ) ;
#8 = DIRECTION ( 'NONE',  ( 5.502656983963531384E-31, 1.000000000000000000, 1.548860246407863583E-16 ) ) ;
#9 = CARTESIAN_POINT ( 'NONE',  ( 4.127660709460298340E-14, -1.447788484380599907E-15, 11.82209013560976452 ) ) ;
#10 = CIRCLE ( 'NONE', #175, 0.7499999999999977796 ) ;
#11 = ADVANCED_FACE ( 'NONE', ( #161 ), #44, .F. ) ;
#12 = VERTEX_POINT ( 'NONE', #14 ) ;
#13 = APPROVAL_ROLE ( '' ) ;
#14 = CARTESIAN_POINT ( 'NONE',  ( 1.047444401652940007E-13, 0.5999999999999963141, 30.00000000000000000 ) ) ;
#15 = EDGE_LOOP ( 'NONE', ( #127 ) ) ;
#16 = ADVANCED_BREP_SHAPE_REPRESENTATION ( '965840', ( #27, #104, #182 ), #30 ) ;
#17 = APPLICATION_CONTEXT ( 'configuration controlled 3d designs of mechanical parts and assemblies' ) ;
#18 = SECURITY_CLASSIFICATION_LEVEL ( 'unclassified' ) ;
#19 = AXIS2_PLACEMENT_3D ( 'NONE', #213, #130, #126 ) ;
#20 = FACE_BOUND ( 'NONE', #195, .T. ) ;
#21 = CALENDAR_DATE ( 2021, 10, 11 ) ;
#22 = ORIENTED_EDGE ( 'NONE', *, *, #101, .T. ) ;
#23 = ADVANCED_FACE ( 'NONE', ( #194 ), #207, .T. ) ;
#24 = CARTESIAN_POINT ( 'NONE',  ( 0.0000000000000000000, 0.0000000000000000000, 0.0000000000000000000 ) ) ;
#25 = AXIS2_PLACEMENT_3D ( 'NONE', #198, #50, #169 ) ;
#26 = FACE_OUTER_BOUND ( 'NONE', #128, .T. ) ;
#27 = MANIFOLD_SOLID_BREP ( 'Corps-Déplacer/Copier1[1]', #153 ) ;
#28 = DIRECTION ( 'NONE',  ( 4.275831445896959482E-31, 1.000000000000000000, 1.224646799147353207E-16 ) ) ;
#29 = DIRECTION ( 'NONE',  ( 0.0000000000000000000, 1.000000000000000000, 0.0000000000000000000 ) ) ;
#30 =( GEOMETRIC_REPRESENTATION_CONTEXT ( 3 ) GLOBAL_UNCERTAINTY_ASSIGNED_CONTEXT ( ( #70 ) ) GLOBAL_UNIT_ASSIGNED_CONTEXT ( ( #37, #51, #143 ) ) REPRESENTATION_CONTEXT ( 'NONE', 'WORKASPACE' ) );
#31 = MECHANICAL_CONTEXT ( 'NONE', #17, 'mechanical' ) ;
#32 = APPROVAL_STATUS ( 'not_yet_approved' ) ;
#33 = CARTESIAN_POINT ( 'NONE',  ( 4.051565637863923702E-14, 0.6999999999999986233, 11.60414518843273690 ) ) ;
#34 = CC_DESIGN_DATE_AND_TIME_ASSIGNMENT ( #129, #97, ( #136 ) ) ;
#35 = CARTESIAN_POINT ( 'NONE',  ( 4.051565637863923702E-14, 0.6999999999999986233, 11.60414518843273690 ) ) ;
#36 = LOCAL_TIME ( 13, 11, 25.00000000000000000, #59 ) ;
#37 =( LENGTH_UNIT ( ) NAMED_UNIT ( * ) SI_UNIT ( .MILLI., .METRE. ) );
#38 = PRODUCT ( '965840', '965840', '', ( #31 ) ) ;
#39 = CARTESIAN_POINT ( 'NONE',  ( 4.051565637863923702E-14, 5.249159239316480416E-33, 11.60414518843273690 ) ) ;
#40 = EDGE_LOOP ( 'NONE', ( #91 ) ) ;
#41 = SHAPE_DEFINITION_REPRESENTATION ( #146, #16 ) ;
#42 = CLOSED_SHELL ( 'NONE', ( #206, #141, #23 ) ) ;
#43 = CARTESIAN_POINT ( 'NONE',  ( 4.051565637863923702E-14, 5.249159239316480416E-33, 11.60414518843273690 ) ) ;
#44 = PLANE ( 'NONE',  #162 ) ;
#45 = CARTESIAN_POINT ( 'NONE',  ( 0.0000000000000000000, 0.0000000000000000000, 0.0000000000000000000 ) ) ;
#46 = APPROVAL_PERSON_ORGANIZATION ( #186, #210, #87 ) ;
#47 = CARTESIAN_POINT ( 'NONE',  ( 4.051565637863923702E-14, -1.517883041479706208E-15, 11.60414518843273690 ) ) ;
#48 = APPLICATION_CONTEXT ( 'configuration controlled 3d designs of mechanical parts and assemblies' ) ;
#49 = DESIGN_CONTEXT ( 'detailed design', #48, 'design' ) ;
#50 = DIRECTION ( 'NONE',  ( -3.491481338843133355E-15, 1.224646799147353207E-16, -1.000000000000000000 ) ) ;
#51 =( NAMED_UNIT ( * ) PLANE_ANGLE_UNIT ( ) SI_UNIT ( $, .RADIAN. ) );
#52 = VERTEX_POINT ( 'NONE', #90 ) ;
#53 = AXIS2_PLACEMENT_3D ( 'NONE', #117, #199, #217 ) ;
#54 = CC_DESIGN_PERSON_AND_ORGANIZATION_ASSIGNMENT ( #148, #58, ( #200 ) ) ;
#55 = DIRECTION ( 'NONE',  ( -4.275831445896958607E-31, -1.000000000000000000, -1.224646799147353207E-16 ) ) ;
#56 = ADVANCED_FACE ( 'NONE', ( #96 ), #118, .F. ) ;
#57 = EDGE_LOOP ( 'NONE', ( #179 ) ) ;
#58 = PERSON_AND_ORGANIZATION_ROLE ( 'design_supplier' ) ;
#59 = COORDINATED_UNIVERSAL_TIME_OFFSET ( 1, 0, .AHEAD. ) ;
#60 = DIRECTION ( 'NONE',  ( -4.275831445896958607E-31, -1.000000000000000000, -1.224646799147353207E-16 ) ) ;
#61 = EDGE_CURVE ( 'NONE', #173, #173, #78, .T. ) ;
#62 = APPROVAL_DATE_TIME ( #192, #220 ) ;
#63 = ORGANIZATION ( 'UNSPECIFIED', 'UNSPECIFIED', '' ) ;
#64 = EDGE_LOOP ( 'NONE', ( #147 ) ) ;
#65 = COORDINATED_UNIVERSAL_TIME_OFFSET ( 1, 0, .AHEAD. ) ;
#66 = DIRECTION ( 'NONE',  ( 0.0000000000000000000, 1.000000000000000000, 0.0000000000000000000 ) ) ;
#67 = DIRECTION ( 'NONE',  ( -3.491481338843133355E-15, 1.224646799147353207E-16, -1.000000000000000000 ) ) ;
#68 = AXIS2_PLACEMENT_3D ( 'NONE', #121, #170, #171 ) ;
#69 = DIRECTION ( 'NONE',  ( -3.491481338843133355E-15, 1.224646799147353207E-16, -1.000000000000000000 ) ) ;
#70 = UNCERTAINTY_MEASURE_WITH_UNIT (LENGTH_MEASURE( 1.000000000000000082E-05 ), #37, 'distance_accuracy_value', 'NONE');
#71 = LOCAL_TIME ( 13, 11, 25.00000000000000000, #65 ) ;
#72 = CARTESIAN_POINT ( 'NONE',  ( 4.127660709460298340E-14, 0.7499999999999963363, 11.82209013560976452 ) ) ;
#73 = DATE_AND_TIME ( #223, #83 ) ;
#74 = AXIS2_PLACEMENT_3D ( 'NONE', #184, #132, #29 ) ;
#75 = AXIS2_PLACEMENT_3D ( 'NONE', #98, #86, #8 ) ;
#76 = VERTEX_POINT ( 'NONE', #33 ) ;
#77 = FACE_OUTER_BOUND ( 'NONE', #150, .T. ) ;
#78 = CIRCLE ( 'NONE', #25, 0.6999999999999999556 ) ;
#79 = EDGE_LOOP ( 'NONE', ( #22 ) ) ;
#80 = CC_DESIGN_DATE_AND_TIME_ASSIGNMENT ( #73, #138, ( #156 ) ) ;
#81 = PERSON_AND_ORGANIZATION ( #188, #63 ) ;
#82 = EDGE_LOOP ( 'NONE', ( #191 ) ) ;
#83 = LOCAL_TIME ( 13, 11, 25.00000000000000000, #155 ) ;
#84 = FACE_OUTER_BOUND ( 'NONE', #79, .T. ) ;
#85 = FACE_OUTER_BOUND ( 'NONE', #15, .T. ) ;
#86 = DIRECTION ( 'NONE',  ( -3.491481338843133355E-15, 1.224646799147353207E-16, -1.000000000000000000 ) ) ;
#87 = APPROVAL_ROLE ( '' ) ;
#88 = CIRCLE ( 'NONE', #221, 0.6999999999999999556 ) ;
#89 = DIRECTION ( 'NONE',  ( -4.554490559825206315E-31, -1.000000000000000000, -1.281975124255702555E-16 ) ) ;
#90 = CARTESIAN_POINT ( 'NONE',  ( 1.411065383596139695E-15, 0.6999999999999999556, 0.4041451884327360577 ) ) ;
#91 = ORIENTED_EDGE ( 'NONE', *, *, #61, .F. ) ;
#92 = EDGE_CURVE ( 'NONE', #76, #76, #88, .T. ) ;
#93 = AXIS2_PLACEMENT_3D ( 'NONE', #45, #7, #133 ) ;
#94 = CC_DESIGN_PERSON_AND_ORGANIZATION_ASSIGNMENT ( #81, #165, ( #200 ) ) ;
#95 = EDGE_LOOP ( 'NONE', ( #211 ) ) ;
#96 = FACE_OUTER_BOUND ( 'NONE', #95, .T. ) ;
#97 = DATE_TIME_ROLE ( 'classification_date' ) ;
#98 = CARTESIAN_POINT ( 'NONE',  ( 1.411065383596139301E-15, -4.949351114049539554E-17, 0.4041451884327359467 ) ) ;
#99 = CC_DESIGN_SECURITY_CLASSIFICATION ( #136, ( #200 ) ) ;
#100 = DIRECTION ( 'NONE',  ( -3.491481338843133355E-15, 1.224646799147353207E-16, -1.000000000000000000 ) ) ;
#101 = EDGE_CURVE ( 'NONE', #157, #157, #10, .T. ) ;
#102 = AXIS2_PLACEMENT_3D ( 'NONE', #24, #67, #28 ) ;
#103 = EDGE_CURVE ( 'NONE', #52, #52, #178, .T. ) ;
#104 = MANIFOLD_SOLID_BREP ( 'Corps-Déplacer/Copier1[2]', #42 ) ;
#105 = PERSON_AND_ORGANIZATION_ROLE ( 'creator' ) ;
#106 = DIRECTION ( 'NONE',  ( 3.491481338843133355E-15, -1.224646799147353207E-16, 1.000000000000000000 ) ) ;
#107 = APPROVAL_STATUS ( 'not_yet_approved' ) ;
#108 = VERTEX_POINT ( 'NONE', #123 ) ;
#109 = LOCAL_TIME ( 13, 11, 25.00000000000000000, #111 ) ;
#110 = CC_DESIGN_PERSON_AND_ORGANIZATION_ASSIGNMENT ( #174, #204, ( #38 ) ) ;
#111 = COORDINATED_UNIVERSAL_TIME_OFFSET ( 1, 0, .AHEAD. ) ;
#112 = EDGE_LOOP ( 'NONE', ( #215 ) ) ;
#113 = AXIS2_PLACEMENT_3D ( 'NONE', #47, #69, #205 ) ;
#114 = DIRECTION ( 'NONE',  ( 3.491481338843133355E-15, -1.224646799147353207E-16, 1.000000000000000000 ) ) ;
#115 = FACE_OUTER_BOUND ( 'NONE', #64, .T. ) ;
#116 = CONICAL_SURFACE ( 'NONE', #19, 0.6000000000000000888, 0.7853981633974453924 ) ;
#117 = CARTESIAN_POINT ( 'NONE',  ( 1.047444401652940007E-13, 4.499279347985518085E-33, 30.00000000000000000 ) ) ;
#118 = PLANE ( 'NONE',  #53 ) ;
#119 = CC_DESIGN_PERSON_AND_ORGANIZATION_ASSIGNMENT ( #163, #212, ( #136 ) ) ;
#120 = CC_DESIGN_APPROVAL ( #210, ( #156 ) ) ;
#121 = CARTESIAN_POINT ( 'NONE',  ( 1.042207179644675275E-13, -3.655570695454848748E-15, 29.84999999999999787 ) ) ;
#122 = AXIS2_PLACEMENT_3D ( 'NONE', #43, #114, #55 ) ;
#123 = CARTESIAN_POINT ( 'NONE',  ( 1.042207179644675275E-13, 0.7499999999999963363, 29.84999999999999787 ) ) ;
#124 = EDGE_CURVE ( 'NONE', #12, #12, #193, .T. ) ;
#125 = APPLICATION_PROTOCOL_DEFINITION ( 'international standard', 'config_control_design', 1994, #17 ) ;
#126 = DIRECTION ( 'NONE',  ( 0.0000000000000000000, 1.000000000000000000, 0.0000000000000000000 ) ) ;
#127 = ORIENTED_EDGE ( 'NONE', *, *, #103, .F. ) ;
#128 = EDGE_LOOP ( 'NONE', ( #5 ) ) ;
#129 = DATE_AND_TIME ( #196, #36 ) ;
#130 = DIRECTION ( 'NONE',  ( -3.491481338843133355E-15, 1.224646799147353207E-16, -1.000000000000000000 ) ) ;
#131 = ADVANCED_FACE ( 'NONE', ( #151, #152 ), #181, .T. ) ;
#132 = DIRECTION ( 'NONE',  ( -3.491481338843133355E-15, 1.224646799147353207E-16, -1.000000000000000000 ) ) ;
#133 = DIRECTION ( 'NONE',  ( 4.275831445896958607E-31, 1.000000000000000000, 1.224646799147353207E-16 ) ) ;
#134 = DIRECTION ( 'NONE',  ( -3.491481338843133355E-15, 1.224646799147353207E-16, -1.000000000000000000 ) ) ;
#135 = APPROVAL ( #32, 'UNSPECIFIED' ) ;
#136 = SECURITY_CLASSIFICATION ( '', '', #18 ) ;
#137 = APPROVAL_DATE_TIME ( #222, #210 ) ;
#138 = DATE_TIME_ROLE ( 'creation_date' ) ;
#139 = CARTESIAN_POINT ( 'NONE',  ( 0.0000000000000000000, 0.0000000000000000000, 0.0000000000000000000 ) ) ;
#140 = CIRCLE ( 'NONE', #68, 0.7500000000000000000 ) ;
#141 = ADVANCED_FACE ( 'NONE', ( #219, #85 ), #168, .T. ) ;
#142 = DIRECTION ( 'NONE',  ( 0.0000000000000000000, 0.0000000000000000000, 1.000000000000000000 ) ) ;
#143 =( NAMED_UNIT ( * ) SI_UNIT ( $, .STERADIAN. ) SOLID_ANGLE_UNIT ( ) );
#144 = ORIENTED_EDGE ( 'NONE', *, *, #218, .F. ) ;
#145 = APPROVAL_PERSON_ORGANIZATION ( #202, #135, #13 ) ;
#146 = PRODUCT_DEFINITION_SHAPE ( 'NONE', 'NONE',  #156 ) ;
#147 = ORIENTED_EDGE ( 'NONE', *, *, #92, .F. ) ;
#148 = PERSON_AND_ORGANIZATION ( #188, #63 ) ;
#149 = APPROVAL_ROLE ( '' ) ;
#150 = EDGE_LOOP ( 'NONE', ( #144 ) ) ;
#151 = FACE_OUTER_BOUND ( 'NONE', #164, .T. ) ;
#152 = FACE_OUTER_BOUND ( 'NONE', #82, .T. ) ;
#153 = CLOSED_SHELL ( 'NONE', ( #11, #177, #131, #2, #56 ) ) ;
#154 = CALENDAR_DATE ( 2021, 10, 11 ) ;
#155 = COORDINATED_UNIVERSAL_TIME_OFFSET ( 1, 0, .AHEAD. ) ;
#156 = PRODUCT_DEFINITION ( 'UNKNOWN', '', #200, #49 ) ;
#157 = VERTEX_POINT ( 'NONE', #72 ) ;
#158 = COORDINATED_UNIVERSAL_TIME_OFFSET ( 1, 0, .AHEAD. ) ;
#159 = ORIENTED_EDGE ( 'NONE', *, *, #101, .F. ) ;
#160 = CALENDAR_DATE ( 2021, 10, 11 ) ;
#161 = FACE_OUTER_BOUND ( 'NONE', #57, .T. ) ;
#162 = AXIS2_PLACEMENT_3D ( 'NONE', #39, #4, #60 ) ;
#163 = PERSON_AND_ORGANIZATION ( #188, #63 ) ;
#164 = EDGE_LOOP ( 'NONE', ( #159 ) ) ;
#165 = PERSON_AND_ORGANIZATION_ROLE ( 'creator' ) ;
#166 = DATE_AND_TIME ( #21, #109 ) ;
#167 = APPROVAL_PERSON_ORGANIZATION ( #208, #220, #149 ) ;
#168 = CYLINDRICAL_SURFACE ( 'NONE', #93, 0.6999999999999999556 ) ;
#169 = DIRECTION ( 'NONE',  ( 0.0000000000000000000, 1.000000000000000000, 0.0000000000000000000 ) ) ;
#170 = DIRECTION ( 'NONE',  ( -3.491481338843133355E-15, 1.224646799147353207E-16, -1.000000000000000000 ) ) ;
#171 = DIRECTION ( 'NONE',  ( 0.0000000000000000000, 1.000000000000000000, 0.0000000000000000000 ) ) ;
#172 = CC_DESIGN_PERSON_AND_ORGANIZATION_ASSIGNMENT ( #201, #105, ( #156 ) ) ;
#173 = VERTEX_POINT ( 'NONE', #35 ) ;
#174 = PERSON_AND_ORGANIZATION ( #188, #63 ) ;
#175 = AXIS2_PLACEMENT_3D ( 'NONE', #9, #100, #197 ) ;
#176 = ORIENTED_EDGE ( 'NONE', *, *, #124, .T. ) ;
#177 = ADVANCED_FACE ( 'NONE', ( #84, #115 ), #203, .F. ) ;
#178 = CIRCLE ( 'NONE', #75, 0.6999999999999999556 ) ;
#179 = ORIENTED_EDGE ( 'NONE', *, *, #92, .T. ) ;
#180 = PRODUCT_RELATED_PRODUCT_CATEGORY ( 'detail', '', ( #38 ) ) ;
#181 = CYLINDRICAL_SURFACE ( 'NONE', #102, 0.7499999999999988898 ) ;
#182 = AXIS2_PLACEMENT_3D ( 'NONE', #139, #142, #189 ) ;
#183 = CARTESIAN_POINT ( 'NONE',  ( 4.051565637863923702E-14, -1.421097926185531069E-15, 11.60414518843273690 ) ) ;
#184 = CARTESIAN_POINT ( 'NONE',  ( 1.047444401652940007E-13, -3.673940397442059178E-15, 30.00000000000000000 ) ) ;
#185 = AXIS2_PLACEMENT_3D ( 'NONE', #3, #106, #89 ) ;
#186 = PERSON_AND_ORGANIZATION ( #188, #63 ) ;
#187 = APPLICATION_PROTOCOL_DEFINITION ( 'international standard', 'config_control_design', 1994, #48 ) ;
#188 = PERSON ( 'UNSPECIFIED', 'UNSPECIFIED', 'UNSPECIFIED', ('UNSPECIFIED'), ('UNSPECIFIED'), ('UNSPECIFIED') ) ;
#189 = DIRECTION ( 'NONE',  ( 1.000000000000000000, 0.0000000000000000000, 0.0000000000000000000 ) ) ;
#190 = CC_DESIGN_APPROVAL ( #220, ( #136 ) ) ;
#191 = ORIENTED_EDGE ( 'NONE', *, *, #218, .T. ) ;
#192 = DATE_AND_TIME ( #160, #71 ) ;
#193 = CIRCLE ( 'NONE', #74, 0.6000000000000000888 ) ;
#194 = FACE_OUTER_BOUND ( 'NONE', #40, .T. ) ;
#195 = EDGE_LOOP ( 'NONE', ( #176 ) ) ;
#196 = CALENDAR_DATE ( 2021, 10, 11 ) ;
#197 = DIRECTION ( 'NONE',  ( 0.0000000000000000000, 1.000000000000000000, 0.0000000000000000000 ) ) ;
#198 = CARTESIAN_POINT ( 'NONE',  ( 4.051565637863923702E-14, -1.421097926185531069E-15, 11.60414518843273690 ) ) ;
#199 = DIRECTION ( 'NONE',  ( -3.491481338843133355E-15, 1.224646799147353207E-16, -1.000000000000000000 ) ) ;
#200 = PRODUCT_DEFINITION_FORMATION_WITH_SPECIFIED_SOURCE ( 'ANY', '', #38, .NOT_KNOWN. ) ;
#201 = PERSON_AND_ORGANIZATION ( #188, #63 ) ;
#202 = PERSON_AND_ORGANIZATION ( #188, #63 ) ;
#203 = TOROIDAL_SURFACE ( 'NONE', #113, 1.200000000000000400, 0.5000000000000002220 ) ;
#204 = PERSON_AND_ORGANIZATION_ROLE ( 'design_owner' ) ;
#205 = DIRECTION ( 'NONE',  ( 4.275831445896958607E-31, 1.000000000000000000, 1.224646799147353207E-16 ) ) ;
#206 = ADVANCED_FACE ( 'NONE', ( #26 ), #1, .T. ) ;
#207 = PLANE ( 'NONE',  #122 ) ;
#208 = PERSON_AND_ORGANIZATION ( #188, #63 ) ;
#209 = APPROVAL_DATE_TIME ( #166, #135 ) ;
#210 = APPROVAL ( #107, 'UNSPECIFIED' ) ;
#211 = ORIENTED_EDGE ( 'NONE', *, *, #124, .F. ) ;
#212 = PERSON_AND_ORGANIZATION_ROLE ( 'classification_officer' ) ;
#213 = CARTESIAN_POINT ( 'NONE',  ( 1.047444401652940007E-13, -3.673940397442059178E-15, 30.00000000000000000 ) ) ;
#214 = LOCAL_TIME ( 13, 11, 25.00000000000000000, #158 ) ;
#215 = ORIENTED_EDGE ( 'NONE', *, *, #61, .T. ) ;
#216 = APPROVAL_STATUS ( 'not_yet_approved' ) ;
#217 = DIRECTION ( 'NONE',  ( 4.275831445896958607E-31, 1.000000000000000000, 1.224646799147353207E-16 ) ) ;
#218 = EDGE_CURVE ( 'NONE', #108, #108, #140, .T. ) ;
#219 = FACE_OUTER_BOUND ( 'NONE', #112, .T. ) ;
#220 = APPROVAL ( #216, 'UNSPECIFIED' ) ;
#221 = AXIS2_PLACEMENT_3D ( 'NONE', #183, #134, #66 ) ;
#222 = DATE_AND_TIME ( #154, #214 ) ;
#223 = CALENDAR_DATE ( 2021, 10, 11 ) ;
ENDSEC;
END-ISO-10303-21;
