ISO-10303-21;
HEADER;
FILE_DESCRIPTION (( 'STEP AP203' ),
    '1' );
FILE_NAME ('965839.step',
    '2021-11-10T12:11:25',
    ( '' ),
    ( '' ),
    'SwSTEP 2.0',
    'SolidWorks 2019',
    '' );
FILE_SCHEMA (( 'CONFIG_CONTROL_DESIGN' ));
ENDSEC;

DATA;
#1 = LOCAL_TIME ( 13, 11, 25.00000000000000000, #159 ) ;
#2 = CYLINDRICAL_SURFACE ( 'NONE', #165, 0.7499999999999987788 ) ;
#3 = CARTESIAN_POINT ( 'NONE',  ( 1.047444401652940007E-13, 0.5999999999999963141, 30.00000000000000000 ) ) ;
#4 = PLANE ( 'NONE',  #25 ) ;
#5 = CARTESIAN_POINT ( 'NONE',  ( 1.310274999053558190E-15, 0.6500000000000001332, 0.3752776749732548156 ) ) ;
#6 = DIRECTION ( 'NONE',  ( -4.275831445896958607E-31, -1.000000000000000000, -1.224646799147353207E-16 ) ) ;
#7 = DIRECTION ( 'NONE',  ( 0.0000000000000000000, -1.000000000000000000, 0.0000000000000000000 ) ) ;
#8 = CIRCLE ( 'NONE', #71, 0.7500000000000000000 ) ;
#9 = CARTESIAN_POINT ( 'NONE',  ( 0.0000000000000000000, 0.0000000000000000000, 0.0000000000000000000 ) ) ;
#10 = CARTESIAN_POINT ( 'NONE',  ( 3.622508838748488721E-14, -1.270605059492098862E-15, 10.37527767497325470 ) ) ;
#11 = ADVANCED_FACE ( 'NONE', ( #151 ), #4, .F. ) ;
#12 = CLOSED_SHELL ( 'NONE', ( #184, #200, #114 ) ) ;
#13 = DATE_AND_TIME ( #124, #1 ) ;
#14 = EDGE_LOOP ( 'NONE', ( #123 ) ) ;
#15 = EDGE_LOOP ( 'NONE', ( #148 ) ) ;
#16 = APPLICATION_PROTOCOL_DEFINITION ( 'international standard', 'config_control_design', 1994, #64 ) ;
#17 = EDGE_LOOP ( 'NONE', ( #98 ) ) ;
#18 = CC_DESIGN_PERSON_AND_ORGANIZATION_ASSIGNMENT ( #180, #70, ( #234 ) ) ;
#19 = CC_DESIGN_SECURITY_CLASSIFICATION ( #77, ( #196 ) ) ;
#20 = VERTEX_POINT ( 'NONE', #224 ) ;
#21 = DIRECTION ( 'NONE',  ( 3.491481338843133355E-15, -1.247135059052984700E-16, 1.000000000000000000 ) ) ;
#22 = CIRCLE ( 'NONE', #92, 0.7499999999999987788 ) ;
#23 = EDGE_LOOP ( 'NONE', ( #216 ) ) ;
#24 = PLANE ( 'NONE',  #187 ) ;
#25 = AXIS2_PLACEMENT_3D ( 'NONE', #116, #94, #132 ) ;
#26 = LOCAL_TIME ( 13, 11, 25.00000000000000000, #235 ) ;
#27 = DATE_AND_TIME ( #63, #26 ) ;
#28 = DIRECTION ( 'NONE',  ( -3.491481338843133355E-15, 1.224646799147353207E-16, -1.000000000000000000 ) ) ;
#29 = APPROVAL_ROLE ( '' ) ;
#30 = ORIENTED_EDGE ( 'NONE', *, *, #105, .T. ) ;
#31 = DIRECTION ( 'NONE',  ( 2.962969145211131408E-31, 1.000000000000000000, 8.340016711426955288E-17 ) ) ;
#32 = DIRECTION ( 'NONE',  ( 3.491481338843133355E-15, -1.224646799147353207E-16, 1.000000000000000000 ) ) ;
#33 = PERSON_AND_ORGANIZATION ( #69, #126 ) ;
#34 = DIRECTION ( 'NONE',  ( -4.554490559825206315E-31, -1.000000000000000000, -1.281975124255702555E-16 ) ) ;
#35 = EDGE_CURVE ( 'NONE', #210, #210, #212, .T. ) ;
#36 = FACE_OUTER_BOUND ( 'NONE', #143, .T. ) ;
#37 = LOCAL_TIME ( 13, 11, 25.00000000000000000, #209 ) ;
#38 = FACE_OUTER_BOUND ( 'NONE', #93, .T. ) ;
#39 = CARTESIAN_POINT ( 'NONE',  ( 3.622508838748488721E-14, -1.301042606982605321E-15, 10.37527767497325470 ) ) ;
#40 = MECHANICAL_CONTEXT ( 'NONE', #64, 'mechanical' ) ;
#41 = FACE_OUTER_BOUND ( 'NONE', #23, .T. ) ;
#42 = DATE_TIME_ROLE ( 'creation_date' ) ;
#43 = DATE_TIME_ROLE ( 'classification_date' ) ;
#44 = CARTESIAN_POINT ( 'NONE',  ( 1.310274999053557992E-15, -4.595826034474572267E-17, 0.3752776749732547601 ) ) ;
#45 = AXIS2_PLACEMENT_3D ( 'NONE', #194, #207, #152 ) ;
#46 = SECURITY_CLASSIFICATION_LEVEL ( 'unclassified' ) ;
#47 = ADVANCED_BREP_SHAPE_REPRESENTATION ( '965839', ( #177, #99, #61 ), #156 ) ;
#48 = APPROVAL ( #121, 'UNSPECIFIED' ) ;
#49 = EDGE_LOOP ( 'NONE', ( #79 ) ) ;
#50 = DIRECTION ( 'NONE',  ( -3.491481338843133355E-15, 1.224646799147353207E-16, -1.000000000000000000 ) ) ;
#51 = EDGE_LOOP ( 'NONE', ( #205 ) ) ;
#52 = AXIS2_PLACEMENT_3D ( 'NONE', #72, #218, #160 ) ;
#53 = CARTESIAN_POINT ( 'NONE',  ( 1.047444401652940007E-13, -3.673940397442059178E-15, 30.00000000000000000 ) ) ;
#54 = EDGE_CURVE ( 'NONE', #139, #139, #22, .T. ) ;
#55 = ORIENTED_EDGE ( 'NONE', *, *, #163, .F. ) ;
#56 = DIRECTION ( 'NONE',  ( -3.491481338843133355E-15, 1.224646799147353207E-16, -1.000000000000000000 ) ) ;
#58 = EDGE_LOOP ( 'NONE', ( #96 ) ) ;
#57 = DESIGN_CONTEXT ( 'detailed design', #129, 'design' ) ;
#59 = DIRECTION ( 'NONE',  ( 3.491481338843133355E-15, -1.224646799147353207E-16, 1.000000000000000000 ) ) ;
#60 = FACE_BOUND ( 'NONE', #51, .T. ) ;
#61 = AXIS2_PLACEMENT_3D ( 'NONE', #109, #133, #118 ) ;
#62 = DIRECTION ( 'NONE',  ( 4.275831445896958607E-31, 1.000000000000000000, 1.224646799147353207E-16 ) ) ;
#63 = CALENDAR_DATE ( 2021, 10, 11 ) ;
#64 = APPLICATION_CONTEXT ( 'configuration controlled 3d designs of mechanical parts and assemblies' ) ;
#65 = PERSON_AND_ORGANIZATION_ROLE ( 'classification_officer' ) ;
#66 = AXIS2_PLACEMENT_3D ( 'NONE', #158, #128, #34 ) ;
#67 = ADVANCED_FACE ( 'NONE', ( #168 ), #221, .F. ) ;
#68 = PERSON_AND_ORGANIZATION ( #69, #126 ) ;
#69 = PERSON ( 'UNSPECIFIED', 'UNSPECIFIED', 'UNSPECIFIED', ('UNSPECIFIED'), ('UNSPECIFIED'), ('UNSPECIFIED') ) ;
#70 = PERSON_AND_ORGANIZATION_ROLE ( 'creator' ) ;
#71 = AXIS2_PLACEMENT_3D ( 'NONE', #83, #117, #172 ) ;
#72 = CARTESIAN_POINT ( 'NONE',  ( 3.709795872219566739E-14, -1.325115630063212728E-15, 10.62527767497325115 ) ) ;
#73 = ORIENTED_EDGE ( 'NONE', *, *, #54, .F. ) ;
#74 = ADVANCED_FACE ( 'NONE', ( #81, #36 ), #2, .T. ) ;
#75 = CIRCLE ( 'NONE', #206, 0.6000000000000000888 ) ;
#76 = LOCAL_TIME ( 13, 11, 25.00000000000000000, #185 ) ;
#77 = SECURITY_CLASSIFICATION ( '', '', #46 ) ;
#78 = DIRECTION ( 'NONE',  ( -3.491481338843133355E-15, 1.224646799147353207E-16, -1.000000000000000000 ) ) ;
#79 = ORIENTED_EDGE ( 'NONE', *, *, #220, .T. ) ;
#80 = LOCAL_TIME ( 13, 11, 25.00000000000000000, #232 ) ;
#81 = FACE_OUTER_BOUND ( 'NONE', #217, .T. ) ;
#82 = VERTEX_POINT ( 'NONE', #5 ) ;
#83 = CARTESIAN_POINT ( 'NONE',  ( 1.042207179644675275E-13, -3.655570695454848748E-15, 29.84999999999999787 ) ) ;
#84 = VERTEX_POINT ( 'NONE', #186 ) ;
#85 =( NAMED_UNIT ( * ) SI_UNIT ( $, .STERADIAN. ) SOLID_ANGLE_UNIT ( ) );
#86 = ADVANCED_FACE ( 'NONE', ( #203, #112 ), #111, .T. ) ;
#87 = CALENDAR_DATE ( 2021, 10, 11 ) ;
#88 = AXIS2_PLACEMENT_3D ( 'NONE', #9, #227, #233 ) ;
#89 = EDGE_LOOP ( 'NONE', ( #166 ) ) ;
#90 = PERSON_AND_ORGANIZATION ( #69, #126 ) ;
#91 = CARTESIAN_POINT ( 'NONE',  ( 3.622508838748488721E-14, -1.270605059492098862E-15, 10.37527767497325470 ) ) ;
#92 = AXIS2_PLACEMENT_3D ( 'NONE', #190, #223, #242 ) ;
#93 = EDGE_LOOP ( 'NONE', ( #149 ) ) ;
#94 = DIRECTION ( 'NONE',  ( -3.491481338843133355E-15, 1.224646799147353207E-16, -1.000000000000000000 ) ) ;
#95 = PRODUCT_RELATED_PRODUCT_CATEGORY ( 'detail', '', ( #145 ) ) ;
#96 = ORIENTED_EDGE ( 'NONE', *, *, #54, .T. ) ;
#97 = APPLICATION_PROTOCOL_DEFINITION ( 'international standard', 'config_control_design', 1994, #129 ) ;
#98 = ORIENTED_EDGE ( 'NONE', *, *, #35, .T. ) ;
#99 = MANIFOLD_SOLID_BREP ( 'Corps-Déplacer/Copier1[2]', #12 ) ;
#100 = FACE_OUTER_BOUND ( 'NONE', #127, .T. ) ;
#101 = TOROIDAL_SURFACE ( 'NONE', #195, 1.149999999999999911, 0.4999999999999997780 ) ;
#102 = VERTEX_POINT ( 'NONE', #222 ) ;
#103 = APPROVAL_DATE_TIME ( #27, #236 ) ;
#104 = APPROVAL_DATE_TIME ( #237, #193 ) ;
#105 = EDGE_CURVE ( 'NONE', #102, #102, #8, .T. ) ;
#106 = FACE_OUTER_BOUND ( 'NONE', #89, .T. ) ;
#107 = DIRECTION ( 'NONE',  ( -4.275831445896958607E-31, -1.000000000000000000, -1.224646799147353207E-16 ) ) ;
#108 = ADVANCED_FACE ( 'NONE', ( #38, #60 ), #161, .T. ) ;
#109 = CARTESIAN_POINT ( 'NONE',  ( 0.0000000000000000000, 0.0000000000000000000, 0.0000000000000000000 ) ) ;
#110 = EDGE_LOOP ( 'NONE', ( #55 ) ) ;
#111 = CONICAL_SURFACE ( 'NONE', #178, 0.8499999999999988676, 0.5235987755982955960 ) ;
#112 = FACE_OUTER_BOUND ( 'NONE', #58, .T. ) ;
#113 = VERTEX_POINT ( 'NONE', #3 ) ;
#114 = ADVANCED_FACE ( 'NONE', ( #226 ), #24, .T. ) ;
#115 = PERSON_AND_ORGANIZATION ( #69, #126 ) ;
#116 = CARTESIAN_POINT ( 'NONE',  ( 1.047444401652940007E-13, 4.499279347985518085E-33, 30.00000000000000000 ) ) ;
#117 = DIRECTION ( 'NONE',  ( -3.491481338843133355E-15, 1.224646799147353207E-16, -1.000000000000000000 ) ) ;
#118 = DIRECTION ( 'NONE',  ( 1.000000000000000000, 0.0000000000000000000, 0.0000000000000000000 ) ) ;
#119 = CC_DESIGN_PERSON_AND_ORGANIZATION_ASSIGNMENT ( #33, #142, ( #196 ) ) ;
#120 = CALENDAR_DATE ( 2021, 10, 11 ) ;
#121 = APPROVAL_STATUS ( 'not_yet_approved' ) ;
#122 = CC_DESIGN_PERSON_AND_ORGANIZATION_ASSIGNMENT ( #115, #191, ( #145 ) ) ;
#123 = ORIENTED_EDGE ( 'NONE', *, *, #220, .F. ) ;
#124 = CALENDAR_DATE ( 2021, 10, 11 ) ;
#125 = AXIS2_PLACEMENT_3D ( 'NONE', #167, #59, #6 ) ;
#126 = ORGANIZATION ( 'UNSPECIFIED', 'UNSPECIFIED', '' ) ;
#127 = EDGE_LOOP ( 'NONE', ( #162 ) ) ;
#128 = DIRECTION ( 'NONE',  ( 3.491481338843133355E-15, -1.224646799147353207E-16, 1.000000000000000000 ) ) ;
#129 = APPLICATION_CONTEXT ( 'configuration controlled 3d designs of mechanical parts and assemblies' ) ;
#130 = CC_DESIGN_DATE_AND_TIME_ASSIGNMENT ( #13, #42, ( #234 ) ) ;
#131 = DIRECTION ( 'NONE',  ( 4.275831445896959482E-31, 1.000000000000000000, 1.224646799147353207E-16 ) ) ;
#132 = DIRECTION ( 'NONE',  ( 4.275831445896958607E-31, 1.000000000000000000, 1.224646799147353207E-16 ) ) ;
#133 = DIRECTION ( 'NONE',  ( 0.0000000000000000000, 0.0000000000000000000, 1.000000000000000000 ) ) ;
#134 = APPROVAL_STATUS ( 'not_yet_approved' ) ;
#135 = CARTESIAN_POINT ( 'NONE',  ( 3.622508838748488721E-14, 4.874219293651018751E-33, 10.37527767497325470 ) ) ;
#136 = APPROVAL_ROLE ( '' ) ;
#137 = DIRECTION ( 'NONE',  ( 0.0000000000000000000, 1.000000000000000000, 0.0000000000000000000 ) ) ;
#138 = APPROVAL_DATE_TIME ( #214, #48 ) ;
#139 = VERTEX_POINT ( 'NONE', #213 ) ;
#140 = CIRCLE ( 'NONE', #52, 0.7169872981077790586 ) ;
#141 = APPROVAL_PERSON_ORGANIZATION ( #215, #236, #228 ) ;
#142 = PERSON_AND_ORGANIZATION_ROLE ( 'creator' ) ;
#143 = EDGE_LOOP ( 'NONE', ( #73 ) ) ;
#144 = EDGE_CURVE ( 'NONE', #84, #84, #140, .T. ) ;
#145 = PRODUCT ( '965839', '965839', '', ( #40 ) ) ;
#146 = FACE_OUTER_BOUND ( 'NONE', #15, .T. ) ;
#147 = CONICAL_SURFACE ( 'NONE', #66, 1732.050807568886512, 1.047197551196600074 ) ;
#148 = ORIENTED_EDGE ( 'NONE', *, *, #225, .T. ) ;
#149 = ORIENTED_EDGE ( 'NONE', *, *, #105, .F. ) ;
#150 = CLOSED_SHELL ( 'NONE', ( #74, #108, #11, #86, #67, #241 ) ) ;
#151 = FACE_OUTER_BOUND ( 'NONE', #110, .T. ) ;
#152 = DIRECTION ( 'NONE',  ( 0.0000000000000000000, 1.000000000000000000, 0.0000000000000000000 ) ) ;
#153 = CYLINDRICAL_SURFACE ( 'NONE', #88, 0.6500000000000001332 ) ;
#154 = CARTESIAN_POINT ( 'NONE',  ( 3.622508838748488721E-14, 0.6499999999999988010, 10.37527767497325470 ) ) ;
#155 = DATE_AND_TIME ( #198, #76 ) ;
#156 =( GEOMETRIC_REPRESENTATION_CONTEXT ( 3 ) GLOBAL_UNCERTAINTY_ASSIGNED_CONTEXT ( ( #170 ) ) GLOBAL_UNIT_ASSIGNED_CONTEXT ( ( #181, #174, #85 ) ) REPRESENTATION_CONTEXT ( 'NONE', 'WORKASPACE' ) );
#157 = DIRECTION ( 'NONE',  ( -3.491481338843133355E-15, 1.224646799147353207E-16, -1.000000000000000000 ) ) ;
#158 = CARTESIAN_POINT ( 'NONE',  ( 3.491481338843133254E-12, -1.224646799147353249E-13, 1000.000000000000000 ) ) ;
#159 = COORDINATED_UNIVERSAL_TIME_OFFSET ( 1, 0, .AHEAD. ) ;
#160 = DIRECTION ( 'NONE',  ( 0.0000000000000000000, -1.000000000000000000, 0.0000000000000000000 ) ) ;
#161 = CONICAL_SURFACE ( 'NONE', #45, 0.6000000000000000888, 0.7853981633974453924 ) ;
#162 = ORIENTED_EDGE ( 'NONE', *, *, #225, .F. ) ;
#163 = EDGE_CURVE ( 'NONE', #113, #113, #75, .T. ) ;
#164 = PRODUCT_DEFINITION_SHAPE ( 'NONE', 'NONE',  #234 ) ;
#165 = AXIS2_PLACEMENT_3D ( 'NONE', #202, #56, #131 ) ;
#166 = ORIENTED_EDGE ( 'NONE', *, *, #144, .F. ) ;
#167 = CARTESIAN_POINT ( 'NONE',  ( 3.622508838748488721E-14, 4.874219293651018751E-33, 10.37527767497325470 ) ) ;
#168 = FACE_OUTER_BOUND ( 'NONE', #17, .T. ) ;
#169 = AXIS2_PLACEMENT_3D ( 'NONE', #10, #157, #137 ) ;
#170 = UNCERTAINTY_MEASURE_WITH_UNIT (LENGTH_MEASURE( 1.000000000000000082E-05 ), #181, 'distance_accuracy_value', 'NONE');
#171 = PERSON_AND_ORGANIZATION ( #69, #126 ) ;
#172 = DIRECTION ( 'NONE',  ( 0.0000000000000000000, 1.000000000000000000, 0.0000000000000000000 ) ) ;
#173 = CIRCLE ( 'NONE', #169, 0.6500000000000001332 ) ;
#174 =( NAMED_UNIT ( * ) PLANE_ANGLE_UNIT ( ) SI_UNIT ( $, .RADIAN. ) );
#175 = CC_DESIGN_DATE_AND_TIME_ASSIGNMENT ( #155, #43, ( #77 ) ) ;
#176 = SHAPE_DEFINITION_REPRESENTATION ( #164, #47 ) ;
#177 = MANIFOLD_SOLID_BREP ( 'Corps-Déplacer/Copier1[1]', #150 ) ;
#178 = AXIS2_PLACEMENT_3D ( 'NONE', #188, #21, #7 ) ;
#179 = APPROVAL_PERSON_ORGANIZATION ( #90, #48, #29 ) ;
#180 = PERSON_AND_ORGANIZATION ( #69, #126 ) ;
#181 =( LENGTH_UNIT ( ) NAMED_UNIT ( * ) SI_UNIT ( .MILLI., .METRE. ) );
#182 = ORIENTED_EDGE ( 'NONE', *, *, #144, .T. ) ;
#183 = DIRECTION ( 'NONE',  ( 0.0000000000000000000, 1.000000000000000000, 0.0000000000000000000 ) ) ;
#184 = ADVANCED_FACE ( 'NONE', ( #146 ), #147, .T. ) ;
#185 = COORDINATED_UNIVERSAL_TIME_OFFSET ( 1, 0, .AHEAD. ) ;
#186 = CARTESIAN_POINT ( 'NONE',  ( 3.709795872219566739E-14, -0.7169872981077802798, 10.62527767497325115 ) ) ;
#187 = AXIS2_PLACEMENT_3D ( 'NONE', #135, #32, #107 ) ;
#188 = CARTESIAN_POINT ( 'NONE',  ( 3.790234280456154952E-14, -1.353847720906781328E-15, 10.85566243270259079 ) ) ;
#189 = CC_DESIGN_PERSON_AND_ORGANIZATION_ASSIGNMENT ( #231, #65, ( #77 ) ) ;
#190 = CARTESIAN_POINT ( 'NONE',  ( 3.729760049730604866E-14, -1.332246708044979335E-15, 10.68245735194570045 ) ) ;
#191 = PERSON_AND_ORGANIZATION_ROLE ( 'design_owner' ) ;
#192 = CC_DESIGN_APPROVAL ( #193, ( #234 ) ) ;
#193 = APPROVAL ( #134, 'UNSPECIFIED' ) ;
#194 = CARTESIAN_POINT ( 'NONE',  ( 1.047444401652940007E-13, -3.673940397442059178E-15, 30.00000000000000000 ) ) ;
#195 = AXIS2_PLACEMENT_3D ( 'NONE', #39, #230, #62 ) ;
#196 = PRODUCT_DEFINITION_FORMATION_WITH_SPECIFIED_SOURCE ( 'ANY', '', #145, .NOT_KNOWN. ) ;
#197 = PERSON_AND_ORGANIZATION_ROLE ( 'design_supplier' ) ;
#198 = CALENDAR_DATE ( 2021, 10, 11 ) ;
#199 = CC_DESIGN_APPROVAL ( #48, ( #196 ) ) ;
#200 = ADVANCED_FACE ( 'NONE', ( #219, #100 ), #153, .T. ) ;
#201 = AXIS2_PLACEMENT_3D ( 'NONE', #44, #28, #31 ) ;
#202 = CARTESIAN_POINT ( 'NONE',  ( 0.0000000000000000000, 0.0000000000000000000, 0.0000000000000000000 ) ) ;
#203 = FACE_BOUND ( 'NONE', #238, .T. ) ;
#204 = DIRECTION ( 'NONE',  ( 0.0000000000000000000, 1.000000000000000000, 0.0000000000000000000 ) ) ;
#205 = ORIENTED_EDGE ( 'NONE', *, *, #163, .T. ) ;
#206 = AXIS2_PLACEMENT_3D ( 'NONE', #53, #50, #183 ) ;
#207 = DIRECTION ( 'NONE',  ( -3.491481338843133355E-15, 1.224646799147353207E-16, -1.000000000000000000 ) ) ;
#208 = APPROVAL_PERSON_ORGANIZATION ( #171, #193, #136 ) ;
#209 = COORDINATED_UNIVERSAL_TIME_OFFSET ( 1, 0, .AHEAD. ) ;
#210 = VERTEX_POINT ( 'NONE', #154 ) ;
#211 = APPROVAL_STATUS ( 'not_yet_approved' ) ;
#212 = CIRCLE ( 'NONE', #239, 0.6500000000000001332 ) ;
#213 = CARTESIAN_POINT ( 'NONE',  ( 3.729760049730604866E-14, -0.7500000000000001110, 10.68245735194570045 ) ) ;
#214 = DATE_AND_TIME ( #120, #80 ) ;
#215 = PERSON_AND_ORGANIZATION ( #69, #126 ) ;
#216 = ORIENTED_EDGE ( 'NONE', *, *, #35, .F. ) ;
#217 = EDGE_LOOP ( 'NONE', ( #30 ) ) ;
#218 = DIRECTION ( 'NONE',  ( 3.491481338843133355E-15, -1.247135059052984700E-16, 1.000000000000000000 ) ) ;
#219 = FACE_OUTER_BOUND ( 'NONE', #49, .T. ) ;
#220 = EDGE_CURVE ( 'NONE', #20, #20, #173, .T. ) ;
#221 = PLANE ( 'NONE',  #125 ) ;
#222 = CARTESIAN_POINT ( 'NONE',  ( 1.042207179644675275E-13, 0.7499999999999963363, 29.84999999999999787 ) ) ;
#223 = DIRECTION ( 'NONE',  ( -3.491481338843133355E-15, 1.247135059052984700E-16, -1.000000000000000000 ) ) ;
#224 = CARTESIAN_POINT ( 'NONE',  ( 3.622508838748488721E-14, 0.6499999999999988010, 10.37527767497325470 ) ) ;
#225 = EDGE_CURVE ( 'NONE', #82, #82, #243, .T. ) ;
#226 = FACE_OUTER_BOUND ( 'NONE', #14, .T. ) ;
#227 = DIRECTION ( 'NONE',  ( -3.491481338843133355E-15, 1.224646799147353207E-16, -1.000000000000000000 ) ) ;
#228 = APPROVAL_ROLE ( '' ) ;
#229 = CC_DESIGN_PERSON_AND_ORGANIZATION_ASSIGNMENT ( #68, #197, ( #196 ) ) ;
#230 = DIRECTION ( 'NONE',  ( -3.491481338843133355E-15, 1.224646799147353207E-16, -1.000000000000000000 ) ) ;
#231 = PERSON_AND_ORGANIZATION ( #69, #126 ) ;
#232 = COORDINATED_UNIVERSAL_TIME_OFFSET ( 1, 0, .AHEAD. ) ;
#233 = DIRECTION ( 'NONE',  ( 4.275831445896958607E-31, 1.000000000000000000, 1.224646799147353207E-16 ) ) ;
#234 = PRODUCT_DEFINITION ( 'UNKNOWN', '', #196, #57 ) ;
#235 = COORDINATED_UNIVERSAL_TIME_OFFSET ( 1, 0, .AHEAD. ) ;
#236 = APPROVAL ( #211, 'UNSPECIFIED' ) ;
#237 = DATE_AND_TIME ( #87, #37 ) ;
#238 = EDGE_LOOP ( 'NONE', ( #182 ) ) ;
#239 = AXIS2_PLACEMENT_3D ( 'NONE', #91, #78, #204 ) ;
#240 = CC_DESIGN_APPROVAL ( #236, ( #77 ) ) ;
#241 = ADVANCED_FACE ( 'NONE', ( #41, #106 ), #101, .F. ) ;
#242 = DIRECTION ( 'NONE',  ( 0.0000000000000000000, -1.000000000000000000, 0.0000000000000000000 ) ) ;
#243 = CIRCLE ( 'NONE', #201, 0.6500000000000001332 ) ;
ENDSEC;
END-ISO-10303-21;
