ISO-10303-21;
HEADER;
FILE_DESCRIPTION (( 'STEP AP203' ),
    '1' );
FILE_NAME ('965815.step',
    '2021-11-26T14:47:32',
    ( '' ),
    ( '' ),
    'SwSTEP 2.0',
    'SolidWorks 2019',
    '' );
FILE_SCHEMA (( 'CONFIG_CONTROL_DESIGN' ));
ENDSEC;

DATA;
#1 = CARTESIAN_POINT ( 'NONE',  ( 0.0000000000000000000, 0.0000000000000000000, 0.0000000000000000000 ) ) ;
#2 = CARTESIAN_POINT ( 'NONE',  ( 1.326762908760390423E-13, 8.998558695971099120E-33, 38.00000000000000000 ) ) ;
#3 = CLOSED_SHELL ( 'NONE', ( #140, #104, #4, #265 ) ) ;
#4 = ADVANCED_FACE ( 'NONE', ( #126, #85 ), #257, .T. ) ;
#5 = CIRCLE ( 'NONE', #55, 0.2607649730810372990 ) ;
#6 = APPROVAL_PERSON_ORGANIZATION ( #144, #67, #142 ) ;
#7 = EDGE_CURVE ( 'NONE', #154, #154, #100, .T. ) ;
#8 = PRODUCT_DEFINITION_SHAPE ( 'NONE', 'NONE',  #77 ) ;
#9 = APPROVAL_ROLE ( '' ) ;
#10 = APPROVAL_STATUS ( 'not_yet_approved' ) ;
#11 = AXIS2_PLACEMENT_3D ( 'NONE', #44, #68, #147 ) ;
#12 =( LENGTH_UNIT ( ) NAMED_UNIT ( * ) SI_UNIT ( .MILLI., .METRE. ) );
#13 = CARTESIAN_POINT ( 'NONE',  ( 1.396592535537253342E-14, -4.898587196589411843E-16, 4.000000000000000000 ) ) ;
#14 = DIRECTION ( 'NONE',  ( -3.491481338843133355E-15, 1.224646799147352961E-16, -1.000000000000000000 ) ) ;
#15 = AXIS2_PLACEMENT_3D ( 'NONE', #73, #28, #92 ) ;
#16 = EDGE_CURVE ( 'NONE', #268, #268, #240, .T. ) ;
#17 = APPLICATION_CONTEXT ( 'configuration controlled 3d designs of mechanical parts and assemblies' ) ;
#18 = DIRECTION ( 'NONE',  ( 0.0000000000000000000, 1.000000000000000000, 0.0000000000000000000 ) ) ;
#19 = CARTESIAN_POINT ( 'NONE',  ( -3.209015576462912837E-32, 1.125571146667345452E-33, -9.190985902637496465E-18 ) ) ;
#20 = DIRECTION ( 'NONE',  ( -3.491481338843133355E-15, 1.224646799147352961E-16, -1.000000000000000000 ) ) ;
#21 = CARTESIAN_POINT ( 'NONE',  ( 3.491481338843132862E-16, -1.224646799147352653E-17, 0.09999999999999997780 ) ) ;
#22 = TOROIDAL_SURFACE ( 'NONE', #158, 2.318500000000000227, 2.000000000000000000 ) ;
#23 = EDGE_LOOP ( 'NONE', ( #177 ) ) ;
#24 = DESIGN_CONTEXT ( 'detailed design', #185, 'design' ) ;
#25 = DIRECTION ( 'NONE',  ( 3.491481338843133355E-15, -1.224646799147352961E-16, 1.000000000000000000 ) ) ;
#26 = ORIENTED_EDGE ( 'NONE', *, *, #115, .F. ) ;
#27 = VERTEX_POINT ( 'NONE', #206 ) ;
#28 = DIRECTION ( 'NONE',  ( -3.491481338843133355E-15, 1.224646799147352961E-16, -1.000000000000000000 ) ) ;
#29 = PLANE ( 'NONE',  #97 ) ;
#30 =( GEOMETRIC_REPRESENTATION_CONTEXT ( 3 ) GLOBAL_UNCERTAINTY_ASSIGNED_CONTEXT ( ( #156 ) ) GLOBAL_UNIT_ASSIGNED_CONTEXT ( ( #12, #232, #210 ) ) REPRESENTATION_CONTEXT ( 'NONE', 'WORKASPACE' ) );
#31 = PRODUCT_RELATED_PRODUCT_CATEGORY ( 'detail', '', ( #99 ) ) ;
#32 = CALENDAR_DATE ( 2021, 26, 11 ) ;
#33 = EDGE_CURVE ( 'NONE', #281, #281, #249, .T. ) ;
#34 = PERSON_AND_ORGANIZATION_ROLE ( 'creator' ) ;
#35 = CC_DESIGN_APPROVAL ( #228, ( #151 ) ) ;
#36 = CALENDAR_DATE ( 2021, 26, 11 ) ;
#37 = MANIFOLD_SOLID_BREP ( 'Corps-Déplacer/Copier1[1]', #236 ) ;
#38 = PERSON_AND_ORGANIZATION_ROLE ( 'classification_officer' ) ;
#39 = AXIS2_PLACEMENT_3D ( 'NONE', #21, #137, #138 ) ;
#40 = DIRECTION ( 'NONE',  ( -3.491481338843133355E-15, 1.224646799147352961E-16, -1.000000000000000000 ) ) ;
#41 = EDGE_CURVE ( 'NONE', #176, #176, #119, .T. ) ;
#42 = CARTESIAN_POINT ( 'NONE',  ( 2.444036937190193349E-14, -8.572527594031471218E-16, 7.000000000000000000 ) ) ;
#43 = CC_DESIGN_DATE_AND_TIME_ASSIGNMENT ( #125, #211, ( #77 ) ) ;
#44 = CARTESIAN_POINT ( 'NONE',  ( 1.396592535537253342E-14, -4.898587196589411843E-16, 4.000000000000000000 ) ) ;
#45 = CC_DESIGN_SECURITY_CLASSIFICATION ( #146, ( #151 ) ) ;
#46 = FACE_OUTER_BOUND ( 'NONE', #219, .T. ) ;
#47 = DIRECTION ( 'NONE',  ( -4.535156854915010405E-31, -1.000000000000000000, -1.276533170116374466E-16 ) ) ;
#48 = ORIENTED_EDGE ( 'NONE', *, *, #149, .F. ) ;
#49 = FACE_OUTER_BOUND ( 'NONE', #175, .T. ) ;
#50 = AXIS2_PLACEMENT_3D ( 'NONE', #1, #75, #52 ) ;
#51 = ORIENTED_EDGE ( 'NONE', *, *, #16, .F. ) ;
#52 = DIRECTION ( 'NONE',  ( 4.275831445896956855E-31, 1.000000000000000000, 1.224646799147352714E-16 ) ) ;
#53 = DIRECTION ( 'NONE',  ( -4.275831445896957731E-31, -1.000000000000000000, -1.224646799147352961E-16 ) ) ;
#54 = DIRECTION ( 'NONE',  ( -3.491481338843133355E-15, 1.224646799147352961E-16, -1.000000000000000000 ) ) ;
#55 = AXIS2_PLACEMENT_3D ( 'NONE', #247, #54, #181 ) ;
#56 = COORDINATED_UNIVERSAL_TIME_OFFSET ( 1, 0, .AHEAD. ) ;
#57 = CALENDAR_DATE ( 2021, 26, 11 ) ;
#58 = PERSON_AND_ORGANIZATION_ROLE ( 'design_supplier' ) ;
#59 = DATE_TIME_ROLE ( 'classification_date' ) ;
#60 = AXIS2_PLACEMENT_3D ( 'NONE', #19, #220, #196 ) ;
#61 = APPROVAL_STATUS ( 'not_yet_approved' ) ;
#62 = APPROVAL_DATE_TIME ( #124, #67 ) ;
#63 = CARTESIAN_POINT ( 'NONE',  ( 4.731839565957905581E-32, 0.2607649730810372990, 1.355252715606880543E-17 ) ) ;
#64 = AXIS2_PLACEMENT_3D ( 'NONE', #229, #222, #224 ) ;
#65 = LOCAL_TIME ( 15, 47, 32.00000000000000000, #141 ) ;
#66 = FACE_BOUND ( 'NONE', #130, .T. ) ;
#67 = APPROVAL ( #61, 'UNSPECIFIED' ) ;
#68 = DIRECTION ( 'NONE',  ( -3.491481338843133355E-15, 1.224646799147352961E-16, -1.000000000000000000 ) ) ;
#69 = DIRECTION ( 'NONE',  ( 4.275831445896958607E-31, 1.000000000000000000, 1.224646799147352961E-16 ) ) ;
#70 = LOCAL_TIME ( 15, 47, 32.00000000000000000, #183 ) ;
#71 = EDGE_LOOP ( 'NONE', ( #48 ) ) ;
#72 = ORIENTED_EDGE ( 'NONE', *, *, #205, .T. ) ;
#73 = CARTESIAN_POINT ( 'NONE',  ( 0.0000000000000000000, 0.0000000000000000000, 0.0000000000000000000 ) ) ;
#74 = ORIENTED_EDGE ( 'NONE', *, *, #149, .T. ) ;
#75 = DIRECTION ( 'NONE',  ( -3.491481338843133355E-15, 1.224646799147352961E-16, -1.000000000000000000 ) ) ;
#76 = CARTESIAN_POINT ( 'NONE',  ( 1.396592535537253342E-14, 0.3184999999999992282, 4.000000000000000000 ) ) ;
#77 = PRODUCT_DEFINITION ( 'UNKNOWN', '', #151, #24 ) ;
#78 = DIRECTION ( 'NONE',  ( 4.398815326426120159E-31, 1.000000000000000000, 1.224646799147352961E-16 ) ) ;
#79 = CALENDAR_DATE ( 2021, 26, 11 ) ;
#80 = VERTEX_POINT ( 'NONE', #63 ) ;
#81 = AXIS2_PLACEMENT_3D ( 'NONE', #274, #20, #174 ) ;
#82 = PERSON_AND_ORGANIZATION ( #273, #106 ) ;
#83 = DIRECTION ( 'NONE',  ( 1.000000000000000000, 0.0000000000000000000, 0.0000000000000000000 ) ) ;
#84 = EDGE_CURVE ( 'NONE', #160, #160, #89, .T. ) ;
#85 = FACE_OUTER_BOUND ( 'NONE', #203, .T. ) ;
#86 = CARTESIAN_POINT ( 'NONE',  ( 3.491481338843132862E-16, -1.224646799147352653E-17, 0.09999999999999997780 ) ) ;
#87 = DIRECTION ( 'NONE',  ( -3.491481338843133355E-15, 1.224646799147352961E-16, -1.000000000000000000 ) ) ;
#88 = DIRECTION ( 'NONE',  ( 0.0000000000000000000, 1.000000000000000000, 0.0000000000000000000 ) ) ;
#89 = CIRCLE ( 'NONE', #11, 0.3184999999999997278 ) ;
#90 = AXIS2_PLACEMENT_3D ( 'NONE', #108, #128, #238 ) ;
#91 = EDGE_LOOP ( 'NONE', ( #93 ) ) ;
#92 = DIRECTION ( 'NONE',  ( 4.275831445896957731E-31, 1.000000000000000000, 1.224646799147353207E-16 ) ) ;
#93 = ORIENTED_EDGE ( 'NONE', *, *, #164, .T. ) ;
#94 = FACE_OUTER_BOUND ( 'NONE', #23, .T. ) ;
#95 = CC_DESIGN_PERSON_AND_ORGANIZATION_ASSIGNMENT ( #103, #189, ( #99 ) ) ;
#96 = FACE_OUTER_BOUND ( 'NONE', #198, .T. ) ;
#97 = AXIS2_PLACEMENT_3D ( 'NONE', #2, #120, #208 ) ;
#98 = FACE_OUTER_BOUND ( 'NONE', #266, .T. ) ;
#99 = PRODUCT ( '965815', '965815', '', ( #169 ) ) ;
#100 = CIRCLE ( 'NONE', #134, 0.3488844939755813557 ) ;
#101 = COORDINATED_UNIVERSAL_TIME_OFFSET ( 1, 0, .AHEAD. ) ;
#102 = DATE_AND_TIME ( #32, #65 ) ;
#103 = PERSON_AND_ORGANIZATION ( #273, #106 ) ;
#104 = ADVANCED_FACE ( 'NONE', ( #129, #216 ), #209, .T. ) ;
#105 = APPROVAL_ROLE ( '' ) ;
#106 = ORGANIZATION ( 'UNSPECIFIED', 'UNSPECIFIED', '' ) ;
#107 = DIRECTION ( 'NONE',  ( 0.0000000000000000000, 1.000000000000000000, 0.0000000000000000000 ) ) ;
#108 = CARTESIAN_POINT ( 'NONE',  ( 1.326762908760390423E-13, -4.653657836759941152E-15, 38.00000000000000000 ) ) ;
#109 = PLANE ( 'NONE',  #60 ) ;
#110 = EDGE_LOOP ( 'NONE', ( #127 ) ) ;
#111 = DIRECTION ( 'NONE',  ( 0.0000000000000000000, -1.000000000000000000, 0.0000000000000000000 ) ) ;
#112 = AXIS2_PLACEMENT_3D ( 'NONE', #237, #40, #107 ) ;
#113 = ORIENTED_EDGE ( 'NONE', *, *, #7, .F. ) ;
#114 = CARTESIAN_POINT ( 'NONE',  ( 4.844638728179411427E-14, -1.699270520362010049E-15, 13.87559679693042014 ) ) ;
#115 = EDGE_CURVE ( 'NONE', #27, #27, #207, .T. ) ;
#116 = ORIENTED_EDGE ( 'NONE', *, *, #33, .F. ) ;
#117 = CYLINDRICAL_SURFACE ( 'NONE', #50, 0.3185000000000000053 ) ;
#118 = FACE_OUTER_BOUND ( 'NONE', #243, .T. ) ;
#119 = CIRCLE ( 'NONE', #112, 1.200000000000003286 ) ;
#120 = DIRECTION ( 'NONE',  ( -3.491481338843133355E-15, 1.224646799147352961E-16, -1.000000000000000000 ) ) ;
#121 = SHAPE_DEFINITION_REPRESENTATION ( #8, #197 ) ;
#122 = APPLICATION_PROTOCOL_DEFINITION ( 'international standard', 'config_control_design', 1994, #17 ) ;
#123 = ADVANCED_FACE ( 'NONE', ( #46, #66 ), #145, .T. ) ;
#124 = DATE_AND_TIME ( #36, #275 ) ;
#125 = DATE_AND_TIME ( #168, #280 ) ;
#126 = FACE_OUTER_BOUND ( 'NONE', #262, .T. ) ;
#127 = ORIENTED_EDGE ( 'NONE', *, *, #7, .T. ) ;
#128 = DIRECTION ( 'NONE',  ( -3.491481338843133355E-15, 1.224646799147352961E-16, -1.000000000000000000 ) ) ;
#129 = FACE_BOUND ( 'NONE', #152, .T. ) ;
#130 = EDGE_LOOP ( 'NONE', ( #241 ) ) ;
#131 = EDGE_LOOP ( 'NONE', ( #72 ) ) ;
#132 = CC_DESIGN_DATE_AND_TIME_ASSIGNMENT ( #165, #59, ( #146 ) ) ;
#133 = PLANE ( 'NONE',  #64 ) ;
#134 = AXIS2_PLACEMENT_3D ( 'NONE', #150, #87, #256 ) ;
#135 = APPROVAL_PERSON_ORGANIZATION ( #184, #228, #105 ) ;
#136 = EDGE_LOOP ( 'NONE', ( #113 ) ) ;
#137 = DIRECTION ( 'NONE',  ( -3.491481338843133355E-15, 1.224646799147352961E-16, -1.000000000000000000 ) ) ;
#138 = DIRECTION ( 'NONE',  ( 4.535156854915010405E-31, 1.000000000000000000, 1.276533170116374466E-16 ) ) ;
#139 = FACE_OUTER_BOUND ( 'NONE', #226, .T. ) ;
#140 = ADVANCED_FACE ( 'NONE', ( #276 ), #109, .F. ) ;
#141 = COORDINATED_UNIVERSAL_TIME_OFFSET ( 1, 0, .AHEAD. ) ;
#142 = APPROVAL_ROLE ( '' ) ;
#143 = SECURITY_CLASSIFICATION_LEVEL ( 'unclassified' ) ;
#144 = PERSON_AND_ORGANIZATION ( #273, #106 ) ;
#145 = CONICAL_SURFACE ( 'NONE', #90, 1.200000000000003286, 0.7853981633974453924 ) ;
#146 = SECURITY_CLASSIFICATION ( '', '', #143 ) ;
#147 = DIRECTION ( 'NONE',  ( 0.0000000000000000000, 1.000000000000000000, 0.0000000000000000000 ) ) ;
#148 = CARTESIAN_POINT ( 'NONE',  ( 0.0000000000000000000, 0.0000000000000000000, 0.0000000000000000000 ) ) ;
#149 = EDGE_CURVE ( 'NONE', #242, #242, #214, .T. ) ;
#150 = CARTESIAN_POINT ( 'NONE',  ( 2.565294811559829420E-14, -8.997842963946609330E-16, 7.347296355333846840 ) ) ;
#151 = PRODUCT_DEFINITION_FORMATION_WITH_SPECIFIED_SOURCE ( 'ANY', '', #99, .NOT_KNOWN. ) ;
#152 = EDGE_LOOP ( 'NONE', ( #171 ) ) ;
#153 = ORIENTED_EDGE ( 'NONE', *, *, #16, .T. ) ;
#154 = VERTEX_POINT ( 'NONE', #179 ) ;
#155 = EDGE_LOOP ( 'NONE', ( #279 ) ) ;
#156 = UNCERTAINTY_MEASURE_WITH_UNIT (LENGTH_MEASURE( 1.000000000000000082E-05 ), #12, 'distance_accuracy_value', 'NONE');
#157 = FACE_BOUND ( 'NONE', #136, .T. ) ;
#158 = AXIS2_PLACEMENT_3D ( 'NONE', #161, #204, #78 ) ;
#159 = LOCAL_TIME ( 15, 47, 32.00000000000000000, #271 ) ;
#160 = VERTEX_POINT ( 'NONE', #263 ) ;
#161 = CARTESIAN_POINT ( 'NONE',  ( 2.444036937190193349E-14, -8.673617379884035472E-16, 7.000000000000000000 ) ) ;
#162 = AXIS2_PLACEMENT_3D ( 'NONE', #13, #14, #239 ) ;
#163 = ADVANCED_FACE ( 'NONE', ( #195, #173 ), #22, .F. ) ;
#164 = EDGE_CURVE ( 'NONE', #267, #267, #248, .T. ) ;
#165 = DATE_AND_TIME ( #57, #70 ) ;
#166 = PERSON_AND_ORGANIZATION_ROLE ( 'creator' ) ;
#167 = APPLICATION_PROTOCOL_DEFINITION ( 'international standard', 'config_control_design', 1994, #185 ) ;
#168 = CALENDAR_DATE ( 2021, 26, 11 ) ;
#169 = MECHANICAL_CONTEXT ( 'NONE', #17, 'mechanical' ) ;
#170 = CARTESIAN_POINT ( 'NONE',  ( 1.316288464743861212E-13, -4.616918432785520292E-15, 37.69999999999999574 ) ) ;
#171 = ORIENTED_EDGE ( 'NONE', *, *, #205, .F. ) ;
#172 = CC_DESIGN_PERSON_AND_ORGANIZATION_ASSIGNMENT ( #213, #166, ( #151 ) ) ;
#173 = FACE_OUTER_BOUND ( 'NONE', #110, .T. ) ;
#174 = DIRECTION ( 'NONE',  ( 0.0000000000000000000, 1.000000000000000000, 0.0000000000000000000 ) ) ;
#175 = EDGE_LOOP ( 'NONE', ( #201 ) ) ;
#176 = VERTEX_POINT ( 'NONE', #202 ) ;
#177 = ORIENTED_EDGE ( 'NONE', *, *, #41, .F. ) ;
#178 = CARTESIAN_POINT ( 'NONE',  ( 2.444036937190193349E-14, 0.3184999999999993392, 7.000000000000000000 ) ) ;
#179 = CARTESIAN_POINT ( 'NONE',  ( 2.565294811559829420E-14, 0.3488844939755804120, 7.347296355333846840 ) ) ;
#180 = AXIS2_PLACEMENT_3D ( 'NONE', #114, #246, #111 ) ;
#181 = DIRECTION ( 'NONE',  ( 4.275831445896958607E-31, 1.000000000000000000, 1.224646799147352961E-16 ) ) ;
#182 = CC_DESIGN_PERSON_AND_ORGANIZATION_ASSIGNMENT ( #82, #58, ( #151 ) ) ;
#183 = COORDINATED_UNIVERSAL_TIME_OFFSET ( 1, 0, .AHEAD. ) ;
#184 = PERSON_AND_ORGANIZATION ( #273, #106 ) ;
#185 = APPLICATION_CONTEXT ( 'configuration controlled 3d designs of mechanical parts and assemblies' ) ;
#186 = APPROVAL_DATE_TIME ( #253, #228 ) ;
#187 = AXIS2_PLACEMENT_3D ( 'NONE', #148, #218, #69 ) ;
#188 = PERSON_AND_ORGANIZATION ( #273, #106 ) ;
#189 = PERSON_AND_ORGANIZATION_ROLE ( 'design_owner' ) ;
#190 = DIRECTION ( 'NONE',  ( 3.491481338843133355E-15, -1.224646799147352961E-16, 1.000000000000000000 ) ) ;
#191 = CC_DESIGN_PERSON_AND_ORGANIZATION_ASSIGNMENT ( #233, #38, ( #146 ) ) ;
#192 = ADVANCED_FACE ( 'NONE', ( #49, #98 ), #117, .T. ) ;
#193 = CARTESIAN_POINT ( 'NONE',  ( 3.491481338843134341E-16, 0.3184999999999991172, 0.1000000000000000194 ) ) ;
#194 = CC_DESIGN_APPROVAL ( #264, ( #146 ) ) ;
#195 = FACE_OUTER_BOUND ( 'NONE', #71, .T. ) ;
#196 = DIRECTION ( 'NONE',  ( -4.275831445896957731E-31, -1.000000000000000000, -1.224646799147352961E-16 ) ) ;
#197 = ADVANCED_BREP_SHAPE_REPRESENTATION ( '965815', ( #37, #231, #225 ), #30 ) ;
#198 = EDGE_LOOP ( 'NONE', ( #116 ) ) ;
#199 = CARTESIAN_POINT ( 'NONE',  ( 1.316288464743861212E-13, 1.499999999999998668, 37.69999999999999574 ) ) ;
#200 = AXIS2_PLACEMENT_3D ( 'NONE', #227, #25, #53 ) ;
#201 = ORIENTED_EDGE ( 'NONE', *, *, #84, .F. ) ;
#202 = CARTESIAN_POINT ( 'NONE',  ( 1.326762908760390423E-13, 1.199999999999998845, 38.00000000000000000 ) ) ;
#203 = EDGE_LOOP ( 'NONE', ( #258 ) ) ;
#204 = DIRECTION ( 'NONE',  ( -3.491481338843133355E-15, 1.224646799147352961E-16, -1.000000000000000000 ) ) ;
#205 = EDGE_CURVE ( 'NONE', #80, #80, #5, .T. ) ;
#206 = CARTESIAN_POINT ( 'NONE',  ( 4.844638728179411427E-14, 1.499999999999995559, 13.87559679693042014 ) ) ;
#207 = CIRCLE ( 'NONE', #81, 1.499999999999997113 ) ;
#208 = DIRECTION ( 'NONE',  ( 4.275831445896957731E-31, 1.000000000000000000, 1.224646799147352961E-16 ) ) ;
#209 = CONICAL_SURFACE ( 'NONE', #269, 0.3184999999999991172, 0.5235987755982930425 ) ;
#210 =( NAMED_UNIT ( * ) SI_UNIT ( $, .STERADIAN. ) SOLID_ANGLE_UNIT ( ) );
#211 = DATE_TIME_ROLE ( 'creation_date' ) ;
#212 = APPROVAL_DATE_TIME ( #102, #264 ) ;
#213 = PERSON_AND_ORGANIZATION ( #273, #106 ) ;
#214 = CIRCLE ( 'NONE', #252, 0.3185000000000002274 ) ;
#215 = APPROVAL_PERSON_ORGANIZATION ( #188, #264, #9 ) ;
#216 = FACE_OUTER_BOUND ( 'NONE', #91, .T. ) ;
#217 = ADVANCED_FACE ( 'NONE', ( #270, #139 ), #283, .T. ) ;
#218 = DIRECTION ( 'NONE',  ( -3.491481338843133355E-15, 1.224646799147352961E-16, -1.000000000000000000 ) ) ;
#219 = EDGE_LOOP ( 'NONE', ( #51 ) ) ;
#220 = DIRECTION ( 'NONE',  ( 3.491481338843133355E-15, -1.224646799147352961E-16, 1.000000000000000000 ) ) ;
#221 = ORIENTED_EDGE ( 'NONE', *, *, #164, .F. ) ;
#222 = DIRECTION ( 'NONE',  ( 3.491481338843133355E-15, -1.224646799147352961E-16, 1.000000000000000000 ) ) ;
#223 = EDGE_LOOP ( 'NONE', ( #26 ) ) ;
#224 = DIRECTION ( 'NONE',  ( -4.275831445896957731E-31, -1.000000000000000000, -1.224646799147352961E-16 ) ) ;
#225 = AXIS2_PLACEMENT_3D ( 'NONE', #254, #250, #83 ) ;
#226 = EDGE_LOOP ( 'NONE', ( #153 ) ) ;
#227 = CARTESIAN_POINT ( 'NONE',  ( 1.396592535537253342E-14, 2.388367453888998100E-33, 4.000000000000000000 ) ) ;
#228 = APPROVAL ( #10, 'UNSPECIFIED' ) ;
#229 = CARTESIAN_POINT ( 'NONE',  ( 1.396592535537253342E-14, 2.388367453888998100E-33, 4.000000000000000000 ) ) ;
#230 = FACE_OUTER_BOUND ( 'NONE', #155, .T. ) ;
#231 = MANIFOLD_SOLID_BREP ( 'Corps-Déplacer/Copier1[2]', #3 ) ;
#232 =( NAMED_UNIT ( * ) PLANE_ANGLE_UNIT ( ) SI_UNIT ( $, .RADIAN. ) );
#233 = PERSON_AND_ORGANIZATION ( #273, #106 ) ;
#234 = APPROVAL_STATUS ( 'not_yet_approved' ) ;
#235 = PERSON_AND_ORGANIZATION ( #273, #106 ) ;
#236 = CLOSED_SHELL ( 'NONE', ( #272, #192, #163, #251, #217, #123, #261 ) ) ;
#237 = CARTESIAN_POINT ( 'NONE',  ( 1.326762908760390423E-13, -4.653657836759941152E-15, 38.00000000000000000 ) ) ;
#238 = DIRECTION ( 'NONE',  ( 0.0000000000000000000, 1.000000000000000000, 0.0000000000000000000 ) ) ;
#239 = DIRECTION ( 'NONE',  ( 0.0000000000000000000, 1.000000000000000000, 0.0000000000000000000 ) ) ;
#240 = CIRCLE ( 'NONE', #260, 1.500000000000003331 ) ;
#241 = ORIENTED_EDGE ( 'NONE', *, *, #41, .T. ) ;
#242 = VERTEX_POINT ( 'NONE', #178 ) ;
#243 = EDGE_LOOP ( 'NONE', ( #282 ) ) ;
#244 = PLANE ( 'NONE',  #200 ) ;
#245 = CC_DESIGN_PERSON_AND_ORGANIZATION_ASSIGNMENT ( #235, #34, ( #77 ) ) ;
#246 = DIRECTION ( 'NONE',  ( 3.491481338843133355E-15, -1.224646799147352961E-16, 1.000000000000000000 ) ) ;
#247 = CARTESIAN_POINT ( 'NONE',  ( -6.418031152925825674E-32, 2.251142293334690905E-33, -1.838197180527499293E-17 ) ) ;
#248 = CIRCLE ( 'NONE', #39, 0.3184999999999991172 ) ;
#249 = CIRCLE ( 'NONE', #162, 0.3184999999999997278 ) ;
#250 = DIRECTION ( 'NONE',  ( 0.0000000000000000000, 0.0000000000000000000, 1.000000000000000000 ) ) ;
#251 = ADVANCED_FACE ( 'NONE', ( #157, #230 ), #278, .T. ) ;
#252 = AXIS2_PLACEMENT_3D ( 'NONE', #42, #277, #88 ) ;
#253 = DATE_AND_TIME ( #79, #159 ) ;
#254 = CARTESIAN_POINT ( 'NONE',  ( 0.0000000000000000000, 0.0000000000000000000, 0.0000000000000000000 ) ) ;
#255 = CC_DESIGN_APPROVAL ( #67, ( #77 ) ) ;
#256 = DIRECTION ( 'NONE',  ( 0.0000000000000000000, 1.000000000000000000, 0.0000000000000000000 ) ) ;
#257 = CYLINDRICAL_SURFACE ( 'NONE', #187, 0.3184999999999994502 ) ;
#258 = ORIENTED_EDGE ( 'NONE', *, *, #33, .T. ) ;
#259 = DIRECTION ( 'NONE',  ( -3.491481338843133355E-15, 1.224646799147352961E-16, -1.000000000000000000 ) ) ;
#260 = AXIS2_PLACEMENT_3D ( 'NONE', #170, #259, #18 ) ;
#261 = ADVANCED_FACE ( 'NONE', ( #94 ), #29, .F. ) ;
#262 = EDGE_LOOP ( 'NONE', ( #221 ) ) ;
#263 = CARTESIAN_POINT ( 'NONE',  ( 1.396592535537253342E-14, 0.3184999999999992282, 4.000000000000000000 ) ) ;
#264 = APPROVAL ( #234, 'UNSPECIFIED' ) ;
#265 = ADVANCED_FACE ( 'NONE', ( #96 ), #244, .T. ) ;
#266 = EDGE_LOOP ( 'NONE', ( #74 ) ) ;
#267 = VERTEX_POINT ( 'NONE', #193 ) ;
#268 = VERTEX_POINT ( 'NONE', #199 ) ;
#269 = AXIS2_PLACEMENT_3D ( 'NONE', #86, #190, #47 ) ;
#270 = FACE_OUTER_BOUND ( 'NONE', #223, .T. ) ;
#271 = COORDINATED_UNIVERSAL_TIME_OFFSET ( 1, 0, .AHEAD. ) ;
#272 = ADVANCED_FACE ( 'NONE', ( #118 ), #133, .F. ) ;
#273 = PERSON ( 'UNSPECIFIED', 'UNSPECIFIED', 'UNSPECIFIED', ('UNSPECIFIED'), ('UNSPECIFIED'), ('UNSPECIFIED') ) ;
#274 = CARTESIAN_POINT ( 'NONE',  ( 4.844638728179411427E-14, -1.699270520362010049E-15, 13.87559679693042014 ) ) ;
#275 = LOCAL_TIME ( 15, 47, 32.00000000000000000, #56 ) ;
#276 = FACE_OUTER_BOUND ( 'NONE', #131, .T. ) ;
#277 = DIRECTION ( 'NONE',  ( -3.491481338843133355E-15, 1.224646799147352961E-16, -1.000000000000000000 ) ) ;
#278 = CONICAL_SURFACE ( 'NONE', #180, 1.499999999999997113, 0.1745329251994260644 ) ;
#279 = ORIENTED_EDGE ( 'NONE', *, *, #115, .T. ) ;
#280 = LOCAL_TIME ( 15, 47, 32.00000000000000000, #101 ) ;
#281 = VERTEX_POINT ( 'NONE', #76 ) ;
#282 = ORIENTED_EDGE ( 'NONE', *, *, #84, .T. ) ;
#283 = CYLINDRICAL_SURFACE ( 'NONE', #15, 1.500000000000000222 ) ;
ENDSEC;
END-ISO-10303-21;
