ISO-10303-21;
HEADER;
FILE_DESCRIPTION (( 'STEP AP203' ),
    '1' );
FILE_NAME ('965664.step',
    '2023-09-27T05:46:08',
    ( '' ),
    ( '' ),
    'SwSTEP 2.0',
    'SolidWorks 2022',
    '' );
FILE_SCHEMA (( 'CONFIG_CONTROL_DESIGN' ));
ENDSEC;

DATA;
#1 = EDGE_CURVE ( 'NONE', #254, #254, #165, .T. ) ;
#2 = CYLINDRICAL_SURFACE ( 'NONE', #77, 1.499999999999998002 ) ;
#3 = APPLICATION_CONTEXT ( 'configuration controlled 3d designs of mechanical parts and assemblies' ) ;
#4 = PRODUCT_DEFINITION ( 'UNKNOWN', '', #84, #24 ) ;
#5 = DIRECTION ( 'NONE',  ( -1.000000000000000000, 0.000000000000000000, 3.484935554417692655E-15 ) ) ;
#6 = FACE_OUTER_BOUND ( 'NONE', #189, .T. ) ;
#7 = DIRECTION ( 'NONE',  ( 1.000000000000000000, 0.000000000000000000, 0.000000000000000000 ) ) ;
#8 = DIRECTION ( 'NONE',  ( 3.491481338843133355E-15, -0.000000000000000000, 1.000000000000000000 ) ) ;
#9 = VERTEX_POINT ( 'NONE', #94 ) ;
#10 = PRODUCT_DEFINITION_SHAPE ( 'NONE', 'NONE',  #4 ) ;
#11 = EDGE_LOOP ( 'NONE', ( #226 ) ) ;
#12 = ADVANCED_FACE ( 'NONE', ( #71, #157 ), #200, .T. ) ;
#13 = EDGE_CURVE ( 'NONE', #266, #266, #160, .T. ) ;
#14 = ORIENTED_EDGE ( 'NONE', *, *, #251, .F. ) ;
#15 = APPLICATION_PROTOCOL_DEFINITION ( 'international standard', 'config_control_design', 1994, #219 ) ;
#16 = LOCAL_TIME ( 7, 46, 8.000000000000000000, #55 ) ;
#17 = COORDINATED_UNIVERSAL_TIME_OFFSET ( 1, 0, .AHEAD. ) ;
#18 = APPROVAL ( #143, 'UNSPECIFIED' ) ;
#19 = CARTESIAN_POINT ( 'NONE',  ( 1.187103655206665183E-14, 0.000000000000000000, 3.399999999999999911 ) ) ;
#20 = DATE_TIME_ROLE ( 'creation_date' ) ;
#21 = AXIS2_PLACEMENT_3D ( 'NONE', #199, #197, #5 ) ;
#22 = FACE_OUTER_BOUND ( 'NONE', #186, .T. ) ;
#23 = FACE_BOUND ( 'NONE', #113, .T. ) ;
#24 = DESIGN_CONTEXT ( 'detailed design', #219, 'design' ) ;
#25 = DIRECTION ( 'NONE',  ( 3.491481338843133355E-15, -0.000000000000000000, 1.000000000000000000 ) ) ;
#26 = DIRECTION ( 'NONE',  ( 3.491481338843133355E-15, -0.000000000000000000, 1.000000000000000000 ) ) ;
#27 = DIRECTION ( 'NONE',  ( 1.000000000000000000, 0.000000000000000000, -3.484935554417692655E-15 ) ) ;
#28 = DIRECTION ( 'NONE',  ( 3.491481338843133355E-15, -0.000000000000000000, 1.000000000000000000 ) ) ;
#29 = CARTESIAN_POINT ( 'NONE',  ( 0.2849999999999999201, 0.000000000000000000, -9.950721815702927302E-16 ) ) ;
#30 = APPROVAL_PERSON_ORGANIZATION ( #167, #170, #108 ) ;
#31 = EDGE_LOOP ( 'NONE', ( #36 ) ) ;
#32 = VERTEX_POINT ( 'NONE', #120 ) ;
#33 = AXIS2_PLACEMENT_3D ( 'NONE', #237, #66, #241 ) ;
#34 = SECURITY_CLASSIFICATION ( '', '', #166 ) ;
#35 = ADVANCED_FACE ( 'NONE', ( #224, #23 ), #51, .T. ) ;
#36 = ORIENTED_EDGE ( 'NONE', *, *, #150, .F. ) ;
#37 = PERSON_AND_ORGANIZATION ( #164, #50 ) ;
#38 = DATE_AND_TIME ( #139, #16 ) ;
#39 = CIRCLE ( 'NONE', #183, 0.4550000000000000155 ) ;
#40 = CALENDAR_DATE ( 2023, 27, 9 ) ;
#41 = APPROVAL_PERSON_ORGANIZATION ( #190, #259, #235 ) ;
#42 = FACE_OUTER_BOUND ( 'NONE', #159, .T. ) ;
#43 = DIRECTION ( 'NONE',  ( 1.000000000000000000, 0.000000000000000000, -3.518901787891550441E-15 ) ) ;
#44 = DIRECTION ( 'NONE',  ( 3.491481338843133355E-15, -0.000000000000000000, 1.000000000000000000 ) ) ;
#45 = EDGE_CURVE ( 'NONE', #132, #132, #210, .T. ) ;
#46 = CARTESIAN_POINT ( 'NONE',  ( 1.326762908760390423E-13, 0.000000000000000000, 38.00000000000000000 ) ) ;
#47 = DIRECTION ( 'NONE',  ( 1.000000000000000000, 0.000000000000000000, -4.077555359153908010E-15 ) ) ;
#48 = DIRECTION ( 'NONE',  ( 3.491481338843133355E-15, -0.000000000000000000, 1.000000000000000000 ) ) ;
#49 = ADVANCED_FACE ( 'NONE', ( #64, #42 ), #75, .T. ) ;
#50 = ORGANIZATION ( 'UNSPECIFIED', 'UNSPECIFIED', '' ) ;
#51 = CONICAL_SURFACE ( 'NONE', #33, 0.3190741737109294429, 0.2617993877991425800 ) ;
#52 = EDGE_CURVE ( 'NONE', #118, #118, #39, .T. ) ;
#53 = EDGE_LOOP ( 'NONE', ( #116 ) ) ;
#54 = LOCAL_TIME ( 7, 46, 8.000000000000000000, #257 ) ;
#55 = COORDINATED_UNIVERSAL_TIME_OFFSET ( 1, 0, .AHEAD. ) ;
#56 = EDGE_LOOP ( 'NONE', ( #249 ) ) ;
#57 = AXIS2_PLACEMENT_3D ( 'NONE', #242, #28, #207 ) ;
#58 =( NAMED_UNIT ( * ) SI_UNIT ( $, .STERADIAN. ) SOLID_ANGLE_UNIT ( ) );
#59 = ORIENTED_EDGE ( 'NONE', *, *, #45, .F. ) ;
#60 = PERSON_AND_ORGANIZATION ( #164, #50 ) ;
#61 = ADVANCED_FACE ( 'NONE', ( #174, #92 ), #215, .T. ) ;
#62 = CIRCLE ( 'NONE', #80, 1.199999999999993072 ) ;
#63 = EDGE_CURVE ( 'NONE', #9, #9, #62, .T. ) ;
#64 = FACE_BOUND ( 'NONE', #99, .T. ) ;
#65 = DATE_AND_TIME ( #201, #135 ) ;
#66 = DIRECTION ( 'NONE',  ( 3.491481338843133355E-15, -0.000000000000000000, 1.000000000000000000 ) ) ;
#67 = ADVANCED_FACE ( 'NONE', ( #152, #6 ), #223, .T. ) ;
#68 = CARTESIAN_POINT ( 'NONE',  ( 7.581138094487799036E-16, 0.000000000000000000, 0.2171324248578035410 ) ) ;
#69 = APPROVAL_STATUS ( 'not_yet_approved' ) ;
#70 = DIRECTION ( 'NONE',  ( -3.491481338843133355E-15, 0.000000000000000000, -1.000000000000000000 ) ) ;
#71 = FACE_OUTER_BOUND ( 'NONE', #81, .T. ) ;
#72 = DIRECTION ( 'NONE',  ( -1.000000000000000000, 0.000000000000000000, 4.625929269271497155E-15 ) ) ;
#73 = ORIENTED_EDGE ( 'NONE', *, *, #52, .T. ) ;
#74 = CIRCLE ( 'NONE', #205, 0.3190741737109294429 ) ;
#75 = CONICAL_SURFACE ( 'NONE', #21, 0.4550000000000000155, 1.047197551196613841 ) ;
#76 =( LENGTH_UNIT ( ) NAMED_UNIT ( * ) SI_UNIT ( .MILLI., .METRE. ) );
#77 = AXIS2_PLACEMENT_3D ( 'NONE', #240, #44, #87 ) ;
#78 = ORIENTED_EDGE ( 'NONE', *, *, #85, .F. ) ;
#79 = CC_DESIGN_APPROVAL ( #170, ( #34 ) ) ;
#80 = AXIS2_PLACEMENT_3D ( 'NONE', #46, #263, #88 ) ;
#81 = EDGE_LOOP ( 'NONE', ( #78 ) ) ;
#82 = APPLICATION_PROTOCOL_DEFINITION ( 'international standard', 'config_control_design', 1994, #3 ) ;
#83 = DATE_TIME_ROLE ( 'classification_date' ) ;
#84 = PRODUCT_DEFINITION_FORMATION_WITH_SPECIFIED_SOURCE ( 'ANY', '', #96, .NOT_KNOWN. ) ;
#85 = EDGE_CURVE ( 'NONE', #268, #268, #107, .T. ) ;
#86 = SHAPE_DEFINITION_REPRESENTATION ( #10, #115 ) ;
#87 = DIRECTION ( 'NONE',  ( 1.000000000000000000, 0.000000000000000000, -4.625929269271491633E-15 ) ) ;
#88 = DIRECTION ( 'NONE',  ( 1.000000000000000000, 0.000000000000000000, -5.782411586589390376E-15 ) ) ;
#89 = DIRECTION ( 'NONE',  ( -3.491481338843133355E-15, 0.000000000000000000, -1.000000000000000000 ) ) ;
#90 = DIRECTION ( 'NONE',  ( 1.000000000000000000, 0.000000000000000000, -3.491481338843133355E-15 ) ) ;
#91 = CARTESIAN_POINT ( 'NONE',  ( 1.187103655206665341E-14, 0.000000000000000000, 3.400000000000000355 ) ) ;
#92 = FACE_OUTER_BOUND ( 'NONE', #134, .T. ) ;
#93 = CARTESIAN_POINT ( 'NONE',  ( 2.816261747714859179E-14, 0.000000000000000000, 8.066094228783702746 ) ) ;
#94 = CARTESIAN_POINT ( 'NONE',  ( 1.200000000000125855, 0.000000000000000000, 37.99999999999999289 ) ) ;
#95 = ORIENTED_EDGE ( 'NONE', *, *, #85, .T. ) ;
#96 = PRODUCT ( '965664', '965664', '', ( #217 ) ) ;
#97 = LOCAL_TIME ( 7, 46, 8.000000000000000000, #141 ) ;
#98 = ADVANCED_FACE ( 'NONE', ( #195 ), #239, .F. ) ;
#99 = EDGE_LOOP ( 'NONE', ( #131 ) ) ;
#100 = PERSON_AND_ORGANIZATION ( #164, #50 ) ;
#101 = EDGE_LOOP ( 'NONE', ( #59 ) ) ;
#102 = CARTESIAN_POINT ( 'NONE',  ( 0.3190741737109422660, 0.000000000000000000, 3.658819045102511325 ) ) ;
#103 = AXIS2_PLACEMENT_3D ( 'NONE', #68, #8, #43 ) ;
#104 = CLOSED_SHELL ( 'NONE', ( #145, #12, #67, #49, #211, #61, #98, #269, #35, #248 ) ) ;
#105 = CALENDAR_DATE ( 2023, 27, 9 ) ;
#106 = VERTEX_POINT ( 'NONE', #102 ) ;
#107 = CIRCLE ( 'NONE', #156, 0.4550000000000000155 ) ;
#108 = APPROVAL_ROLE ( '' ) ;
#109 = CYLINDRICAL_SURFACE ( 'NONE', #187, 0.2849999999999996425 ) ;
#110 = CARTESIAN_POINT ( 'NONE',  ( 0.000000000000000000, 0.000000000000000000, 0.000000000000000000 ) ) ;
#111 = FACE_OUTER_BOUND ( 'NONE', #227, .T. ) ;
#112 = DIRECTION ( 'NONE',  ( 1.000000000000000000, 0.000000000000000000, -4.625929269271497155E-15 ) ) ;
#113 = EDGE_LOOP ( 'NONE', ( #142 ) ) ;
#114 = DIRECTION ( 'NONE',  ( 1.000000000000000000, 0.000000000000000000, -3.484935554417692655E-15 ) ) ;
#115 = ADVANCED_BREP_SHAPE_REPRESENTATION ( '965664', ( #138, #127 ), #236 ) ;
#116 = ORIENTED_EDGE ( 'NONE', *, *, #63, .T. ) ;
#117 = CC_DESIGN_SECURITY_CLASSIFICATION ( #34, ( #84 ) ) ;
#118 = VERTEX_POINT ( 'NONE', #208 ) ;
#119 = DIRECTION ( 'NONE',  ( 3.491481338843133355E-15, -0.000000000000000000, 1.000000000000000000 ) ) ;
#120 = CARTESIAN_POINT ( 'NONE',  ( 0.2850000000000006972, 0.000000000000000000, 0.2171324248578025418 ) ) ;
#121 = CALENDAR_DATE ( 2023, 27, 9 ) ;
#122 = PERSON_AND_ORGANIZATION ( #164, #50 ) ;
#123 = AXIS2_PLACEMENT_3D ( 'NONE', #206, #89, #72 ) ;
#124 = APPROVAL_DATE_TIME ( #185, #259 ) ;
#125 = DIRECTION ( 'NONE',  ( 3.491481338843133355E-15, -0.000000000000000000, 1.000000000000000000 ) ) ;
#126 = DIRECTION ( 'NONE',  ( 3.491481338843133355E-15, -0.000000000000000000, 1.000000000000000000 ) ) ;
#127 = AXIS2_PLACEMENT_3D ( 'NONE', #144, #272, #234 ) ;
#128 = CARTESIAN_POINT ( 'NONE',  ( 1.316288464743861212E-13, 0.000000000000000000, 37.69999999999999574 ) ) ;
#129 = AXIS2_PLACEMENT_3D ( 'NONE', #225, #26, #7 ) ;
#130 = PLANE ( 'NONE',  #196 ) ;
#131 = ORIENTED_EDGE ( 'NONE', *, *, #136, .F. ) ;
#132 = VERTEX_POINT ( 'NONE', #29 ) ;
#133 = FACE_OUTER_BOUND ( 'NONE', #11, .T. ) ;
#134 = EDGE_LOOP ( 'NONE', ( #140 ) ) ;
#135 = LOCAL_TIME ( 7, 46, 8.000000000000000000, #173 ) ;
#136 = EDGE_CURVE ( 'NONE', #32, #32, #178, .T. ) ;
#137 = AXIS2_PLACEMENT_3D ( 'NONE', #110, #260, #90 ) ;
#138 = MANIFOLD_SOLID_BREP ( 'Corps-Déplacer/Copier1', #104 ) ;
#139 = CALENDAR_DATE ( 2023, 27, 9 ) ;
#140 = ORIENTED_EDGE ( 'NONE', *, *, #251, .T. ) ;
#141 = COORDINATED_UNIVERSAL_TIME_OFFSET ( 1, 0, .AHEAD. ) ;
#142 = ORIENTED_EDGE ( 'NONE', *, *, #150, .T. ) ;
#143 = APPROVAL_STATUS ( 'not_yet_approved' ) ;
#144 = CARTESIAN_POINT ( 'NONE',  ( 0.000000000000000000, 0.000000000000000000, 0.000000000000000000 ) ) ;
#145 = ADVANCED_FACE ( 'NONE', ( #155 ), #130, .F. ) ;
#146 = AXIS2_PLACEMENT_3D ( 'NONE', #93, #48, #261 ) ;
#147 =( NAMED_UNIT ( * ) PLANE_ANGLE_UNIT ( ) SI_UNIT ( $, .RADIAN. ) );
#148 = APPROVAL_DATE_TIME ( #65, #170 ) ;
#149 = CC_DESIGN_APPROVAL ( #259, ( #4 ) ) ;
#150 = EDGE_CURVE ( 'NONE', #106, #106, #74, .T. ) ;
#151 = CARTESIAN_POINT ( 'NONE',  ( 1.326762908760390423E-13, 1.199999999999993072, 38.00000000000000000 ) ) ;
#152 = FACE_OUTER_BOUND ( 'NONE', #56, .T. ) ;
#153 = DIRECTION ( 'NONE',  ( 1.000000000000000000, 0.000000000000000000, 0.000000000000000000 ) ) ;
#154 = CC_DESIGN_PERSON_AND_ORGANIZATION_ASSIGNMENT ( #212, #274, ( #84 ) ) ;
#155 = FACE_OUTER_BOUND ( 'NONE', #101, .T. ) ;
#156 = AXIS2_PLACEMENT_3D ( 'NONE', #172, #171, #114 ) ;
#157 = FACE_BOUND ( 'NONE', #273, .T. ) ;
#158 = DIRECTION ( 'NONE',  ( -1.000000000000000000, 0.000000000000000000, 3.491481338843133355E-15 ) ) ;
#159 = EDGE_LOOP ( 'NONE', ( #73 ) ) ;
#160 = CIRCLE ( 'NONE', #146, 1.500000000000000000 ) ;
#161 = EDGE_LOOP ( 'NONE', ( #181 ) ) ;
#162 = APPROVAL_ROLE ( '' ) ;
#163 = EDGE_LOOP ( 'NONE', ( #253 ) ) ;
#164 = PERSON ( 'UNSPECIFIED', 'UNSPECIFIED', 'UNSPECIFIED', ('UNSPECIFIED'), ('UNSPECIFIED'), ('UNSPECIFIED') ) ;
#165 = CIRCLE ( 'NONE', #194, 0.2849999999999994205 ) ;
#166 = SECURITY_CLASSIFICATION_LEVEL ( 'unclassified' ) ;
#167 = PERSON_AND_ORGANIZATION ( #164, #50 ) ;
#168 = FACE_OUTER_BOUND ( 'NONE', #245, .T. ) ;
#169 = APPROVAL_STATUS ( 'not_yet_approved' ) ;
#170 = APPROVAL ( #69, 'UNSPECIFIED' ) ;
#171 = DIRECTION ( 'NONE',  ( 3.491481338843133355E-15, -0.000000000000000000, 1.000000000000000000 ) ) ;
#172 = CARTESIAN_POINT ( 'NONE',  ( 3.426873074447658771E-16, 0.000000000000000000, 0.09814954576223278160 ) ) ;
#173 = COORDINATED_UNIVERSAL_TIME_OFFSET ( 1, 0, .AHEAD. ) ;
#174 = FACE_BOUND ( 'NONE', #204, .T. ) ;
#175 = CARTESIAN_POINT ( 'NONE',  ( 4.154265020040140758E-16, 0.000000000000000000, 0.1189828790955707594 ) ) ;
#176 = AXIS2_PLACEMENT_3D ( 'NONE', #128, #258, #112 ) ;
#177 = DIRECTION ( 'NONE',  ( 1.000000000000000000, 0.000000000000000000, -3.043374519257562340E-15 ) ) ;
#178 = CIRCLE ( 'NONE', #103, 0.2849999999999999201 ) ;
#179 = CARTESIAN_POINT ( 'NONE',  ( 0.000000000000000000, 0.000000000000000000, 0.000000000000000000 ) ) ;
#180 = ORIENTED_EDGE ( 'NONE', *, *, #45, .T. ) ;
#181 = ORIENTED_EDGE ( 'NONE', *, *, #13, .T. ) ;
#182 = LOCAL_TIME ( 7, 46, 8.000000000000000000, #17 ) ;
#183 = AXIS2_PLACEMENT_3D ( 'NONE', #175, #125, #27 ) ;
#184 = CARTESIAN_POINT ( 'NONE',  ( 0.2850000000000112998, 0.000000000000000000, 3.399999999999999467 ) ) ;
#185 = DATE_AND_TIME ( #40, #54 ) ;
#186 = EDGE_LOOP ( 'NONE', ( #265 ) ) ;
#187 = AXIS2_PLACEMENT_3D ( 'NONE', #222, #25, #153 ) ;
#188 = PERSON_AND_ORGANIZATION_ROLE ( 'design_owner' ) ;
#189 = EDGE_LOOP ( 'NONE', ( #95 ) ) ;
#190 = PERSON_AND_ORGANIZATION ( #164, #50 ) ;
#191 = CC_DESIGN_PERSON_AND_ORGANIZATION_ASSIGNMENT ( #218, #233, ( #4 ) ) ;
#192 = DIRECTION ( 'NONE',  ( 3.491481338843133355E-15, -0.000000000000000000, 1.000000000000000000 ) ) ;
#193 = APPROVAL_PERSON_ORGANIZATION ( #60, #18, #162 ) ;
#194 = AXIS2_PLACEMENT_3D ( 'NONE', #91, #119, #177 ) ;
#195 = FACE_OUTER_BOUND ( 'NONE', #53, .T. ) ;
#196 = AXIS2_PLACEMENT_3D ( 'NONE', #179, #220, #267 ) ;
#197 = DIRECTION ( 'NONE',  ( -3.491481338843133355E-15, 0.000000000000000000, -1.000000000000000000 ) ) ;
#198 = UNCERTAINTY_MEASURE_WITH_UNIT (LENGTH_MEASURE( 1.000000000000000082E-05 ), #76, 'distance_accuracy_value', 'NONE');
#199 = CARTESIAN_POINT ( 'NONE',  ( 4.154265020040140758E-16, 0.000000000000000000, 0.1189828790955707594 ) ) ;
#200 = CONICAL_SURFACE ( 'NONE', #57, 0.2849999999999999201, 1.047197551196613841 ) ;
#201 = CALENDAR_DATE ( 2023, 27, 9 ) ;
#202 = CC_DESIGN_DATE_AND_TIME_ASSIGNMENT ( #275, #83, ( #34 ) ) ;
#203 = FACE_OUTER_BOUND ( 'NONE', #31, .T. ) ;
#204 = EDGE_LOOP ( 'NONE', ( #250 ) ) ;
#205 = AXIS2_PLACEMENT_3D ( 'NONE', #244, #126, #47 ) ;
#206 = CARTESIAN_POINT ( 'NONE',  ( 1.316288464743861212E-13, 0.000000000000000000, 37.69999999999999574 ) ) ;
#207 = DIRECTION ( 'NONE',  ( 1.000000000000000000, 0.000000000000000000, -3.491481338843133355E-15 ) ) ;
#208 = CARTESIAN_POINT ( 'NONE',  ( 0.4550000000000004596, 0.000000000000000000, 0.1189828790955691773 ) ) ;
#209 = CC_DESIGN_DATE_AND_TIME_ASSIGNMENT ( #214, #20, ( #4 ) ) ;
#210 = CIRCLE ( 'NONE', #137, 0.2849999999999999201 ) ;
#211 = ADVANCED_FACE ( 'NONE', ( #133, #22 ), #109, .T. ) ;
#212 = PERSON_AND_ORGANIZATION ( #164, #50 ) ;
#213 = CIRCLE ( 'NONE', #176, 1.499999999999996225 ) ;
#214 = DATE_AND_TIME ( #121, #97 ) ;
#215 = CONICAL_SURFACE ( 'NONE', #123, 1.499999999999996225, 0.7853981633974504994 ) ;
#216 = PERSON_AND_ORGANIZATION_ROLE ( 'classification_officer' ) ;
#217 = MECHANICAL_CONTEXT ( 'NONE', #3, 'mechanical' ) ;
#218 = PERSON_AND_ORGANIZATION ( #164, #50 ) ;
#219 = APPLICATION_CONTEXT ( 'configuration controlled 3d designs of mechanical parts and assemblies' ) ;
#220 = DIRECTION ( 'NONE',  ( 3.491481338843133355E-15, -0.000000000000000000, 1.000000000000000000 ) ) ;
#221 = AXIS2_PLACEMENT_3D ( 'NONE', #19, #192, #247 ) ;
#222 = CARTESIAN_POINT ( 'NONE',  ( 1.326762908760390423E-13, 0.000000000000000000, 38.00000000000000000 ) ) ;
#223 = CYLINDRICAL_SURFACE ( 'NONE', #129, 0.4550000000000000155 ) ;
#224 = FACE_OUTER_BOUND ( 'NONE', #163, .T. ) ;
#225 = CARTESIAN_POINT ( 'NONE',  ( 1.326762908760390423E-13, 0.000000000000000000, 38.00000000000000000 ) ) ;
#226 = ORIENTED_EDGE ( 'NONE', *, *, #1, .F. ) ;
#227 = EDGE_LOOP ( 'NONE', ( #14 ) ) ;
#228 = PRODUCT_RELATED_PRODUCT_CATEGORY ( 'detail', '', ( #96 ) ) ;
#229 = AXIS2_PLACEMENT_3D ( 'NONE', #151, #70, #158 ) ;
#230 = APPROVAL_DATE_TIME ( #38, #18 ) ;
#231 = ORIENTED_EDGE ( 'NONE', *, *, #1, .T. ) ;
#232 = CC_DESIGN_PERSON_AND_ORGANIZATION_ASSIGNMENT ( #122, #216, ( #34 ) ) ;
#233 = PERSON_AND_ORGANIZATION_ROLE ( 'creator' ) ;
#234 = DIRECTION ( 'NONE',  ( 1.000000000000000000, 0.000000000000000000, 0.000000000000000000 ) ) ;
#235 = APPROVAL_ROLE ( '' ) ;
#236 =( GEOMETRIC_REPRESENTATION_CONTEXT ( 3 ) GLOBAL_UNCERTAINTY_ASSIGNED_CONTEXT ( ( #198 ) ) GLOBAL_UNIT_ASSIGNED_CONTEXT ( ( #76, #147, #58 ) ) REPRESENTATION_CONTEXT ( 'NONE', 'WORKASPACE' ) );
#237 = CARTESIAN_POINT ( 'NONE',  ( 1.277469841817927608E-14, 0.000000000000000000, 3.658819045102512657 ) ) ;
#238 = CC_DESIGN_PERSON_AND_ORGANIZATION_ASSIGNMENT ( #100, #188, ( #96 ) ) ;
#239 = PLANE ( 'NONE',  #229 ) ;
#240 = CARTESIAN_POINT ( 'NONE',  ( 1.326762908760390423E-13, 0.000000000000000000, 38.00000000000000000 ) ) ;
#241 = DIRECTION ( 'NONE',  ( 1.000000000000000000, 0.000000000000000000, -4.077555359153908010E-15 ) ) ;
#242 = CARTESIAN_POINT ( 'NONE',  ( 0.000000000000000000, 0.000000000000000000, 0.000000000000000000 ) ) ;
#243 = CARTESIAN_POINT ( 'NONE',  ( 1.500000000000028200, 0.000000000000000000, 8.066094228783697417 ) ) ;
#244 = CARTESIAN_POINT ( 'NONE',  ( 1.277469841817927608E-14, 0.000000000000000000, 3.658819045102512657 ) ) ;
#245 = EDGE_LOOP ( 'NONE', ( #231 ) ) ;
#246 = CARTESIAN_POINT ( 'NONE',  ( 0.4550000000000003486, 0.000000000000000000, 0.09814954576223119953 ) ) ;
#247 = DIRECTION ( 'NONE',  ( 1.000000000000000000, 0.000000000000000000, -3.491481338843133355E-15 ) ) ;
#248 = ADVANCED_FACE ( 'NONE', ( #111, #262 ), #2, .T. ) ;
#249 = ORIENTED_EDGE ( 'NONE', *, *, #52, .F. ) ;
#250 = ORIENTED_EDGE ( 'NONE', *, *, #63, .F. ) ;
#251 = EDGE_CURVE ( 'NONE', #270, #270, #213, .T. ) ;
#252 = PERSON_AND_ORGANIZATION_ROLE ( 'creator' ) ;
#253 = ORIENTED_EDGE ( 'NONE', *, *, #13, .F. ) ;
#254 = VERTEX_POINT ( 'NONE', #184 ) ;
#255 = TOROIDAL_SURFACE ( 'NONE', #221, 1.284999999999999476, 1.000000000000000000 ) ;
#256 = CARTESIAN_POINT ( 'NONE',  ( 1.500000000000127676, 0.000000000000000000, 37.69999999999998863 ) ) ;
#257 = COORDINATED_UNIVERSAL_TIME_OFFSET ( 1, 0, .AHEAD. ) ;
#258 = DIRECTION ( 'NONE',  ( 3.491481338843133355E-15, -0.000000000000000000, 1.000000000000000000 ) ) ;
#259 = APPROVAL ( #169, 'UNSPECIFIED' ) ;
#260 = DIRECTION ( 'NONE',  ( 3.491481338843133355E-15, -0.000000000000000000, 1.000000000000000000 ) ) ;
#261 = DIRECTION ( 'NONE',  ( 1.000000000000000000, 0.000000000000000000, -3.469446951953614189E-15 ) ) ;
#262 = FACE_OUTER_BOUND ( 'NONE', #161, .T. ) ;
#263 = DIRECTION ( 'NONE',  ( 3.491481338843133355E-15, -0.000000000000000000, 1.000000000000000000 ) ) ;
#264 = CC_DESIGN_PERSON_AND_ORGANIZATION_ASSIGNMENT ( #37, #252, ( #84 ) ) ;
#265 = ORIENTED_EDGE ( 'NONE', *, *, #136, .T. ) ;
#266 = VERTEX_POINT ( 'NONE', #243 ) ;
#267 = DIRECTION ( 'NONE',  ( 1.000000000000000000, 0.000000000000000000, -3.491481338843133355E-15 ) ) ;
#268 = VERTEX_POINT ( 'NONE', #246 ) ;
#269 = ADVANCED_FACE ( 'NONE', ( #203, #168 ), #255, .F. ) ;
#270 = VERTEX_POINT ( 'NONE', #256 ) ;
#271 = CC_DESIGN_APPROVAL ( #18, ( #84 ) ) ;
#272 = DIRECTION ( 'NONE',  ( 0.000000000000000000, 0.000000000000000000, 1.000000000000000000 ) ) ;
#273 = EDGE_LOOP ( 'NONE', ( #180 ) ) ;
#274 = PERSON_AND_ORGANIZATION_ROLE ( 'design_supplier' ) ;
#275 = DATE_AND_TIME ( #105, #182 ) ;
ENDSEC;
END-ISO-10303-21;
