ISO-10303-21;
HEADER;
FILE_DESCRIPTION (( 'STEP AP203' ),
    '1' );
FILE_NAME ('965642.step',
    '2021-12-16T10:16:23',
    ( '' ),
    ( '' ),
    'SwSTEP 2.0',
    'SolidWorks 2019',
    '' );
FILE_SCHEMA (( 'CONFIG_CONTROL_DESIGN' ));
ENDSEC;

DATA;
#1 = ORIENTED_EDGE ( 'NONE', *, *, #119, .T. ) ;
#2 = CARTESIAN_POINT ( 'NONE',  ( 0.0000000000000000000, 0.0000000000000000000, 0.0000000000000000000 ) ) ;
#3 = EDGE_LOOP ( 'NONE', ( #68 ) ) ;
#4 = APPROVAL_DATE_TIME ( #196, #85 ) ;
#5 = AXIS2_PLACEMENT_3D ( 'NONE', #178, #126, #242 ) ;
#6 = FACE_OUTER_BOUND ( 'NONE', #176, .T. ) ;
#7 = DIRECTION ( 'NONE',  ( -4.275831445896958607E-31, -1.000000000000000000, -1.224646799147353207E-16 ) ) ;
#8 = CARTESIAN_POINT ( 'NONE',  ( -1.004094658992492054E-31, 3.521889968295073714E-33, -2.875841402392224887E-17 ) ) ;
#9 = CC_DESIGN_PERSON_AND_ORGANIZATION_ASSIGNMENT ( #74, #69, ( #123 ) ) ;
#10 = FACE_OUTER_BOUND ( 'NONE', #259, .T. ) ;
#11 = CARTESIAN_POINT ( 'NONE',  ( 1.390924144244890836E-14, -4.878705156335385154E-16, 3.983765082089080423 ) ) ;
#12 = DIRECTION ( 'NONE',  ( -3.491481338843133355E-15, 1.224646799147353207E-16, -1.000000000000000000 ) ) ;
#13 = CARTESIAN_POINT ( 'NONE',  ( 1.390924144244890836E-14, 0.7499999999999963363, 3.983765082089080423 ) ) ;
#14 = ADVANCED_FACE ( 'NONE', ( #26, #71 ), #254, .T. ) ;
#15 = TOROIDAL_SURFACE ( 'NONE', #209, 0.6824999999999994404, 0.5000000000000000000 ) ;
#16 = CIRCLE ( 'NONE', #5, 0.1099999999999999867 ) ;
#17 = PERSON_AND_ORGANIZATION_ROLE ( 'classification_officer' ) ;
#18 = DESIGN_CONTEXT ( 'detailed design', #244, 'design' ) ;
#19 = ADVANCED_FACE ( 'NONE', ( #222 ), #45, .F. ) ;
#20 = PERSON_AND_ORGANIZATION ( #48, #159 ) ;
#21 = VERTEX_POINT ( 'NONE', #67 ) ;
#22 = EDGE_LOOP ( 'NONE', ( #131 ) ) ;
#23 = LOCAL_TIME ( 11, 16, 23.00000000000000000, #194 ) ;
#24 = MECHANICAL_CONTEXT ( 'NONE', #211, 'mechanical' ) ;
#25 = PERSON_AND_ORGANIZATION ( #48, #159 ) ;
#26 = FACE_OUTER_BOUND ( 'NONE', #22, .T. ) ;
#27 = FACE_OUTER_BOUND ( 'NONE', #88, .T. ) ;
#28 = CLOSED_SHELL ( 'NONE', ( #81, #249, #70, #166 ) ) ;
#29 = AXIS2_PLACEMENT_3D ( 'NONE', #224, #32, #7 ) ;
#30 = FACE_OUTER_BOUND ( 'NONE', #146, .T. ) ;
#31 = PRODUCT_RELATED_PRODUCT_CATEGORY ( 'detail', '', ( #173 ) ) ;
#32 = DIRECTION ( 'NONE',  ( 3.491481338843133355E-15, -1.224646799147353207E-16, 1.000000000000000000 ) ) ;
#33 = DIRECTION ( 'NONE',  ( -3.491481338843133355E-15, 1.224646799147353207E-16, -1.000000000000000000 ) ) ;
#34 = DIRECTION ( 'NONE',  ( 0.0000000000000000000, 1.000000000000000000, 0.0000000000000000000 ) ) ;
#35 = DIRECTION ( 'NONE',  ( -3.491481338843133355E-15, 1.224646799147353207E-16, -1.000000000000000000 ) ) ;
#36 = CARTESIAN_POINT ( 'NONE',  ( 9.447029668924999975E-16, -3.313571954914828132E-17, 0.2705736835487477232 ) ) ;
#37 = AXIS2_PLACEMENT_3D ( 'NONE', #99, #140, #197 ) ;
#38 = EDGE_LOOP ( 'NONE', ( #274 ) ) ;
#39 = EDGE_LOOP ( 'NONE', ( #107 ) ) ;
#40 = DIRECTION ( 'NONE',  ( 0.0000000000000000000, 0.0000000000000000000, 1.000000000000000000 ) ) ;
#41 = COORDINATED_UNIVERSAL_TIME_OFFSET ( 1, 0, .AHEAD. ) ;
#42 = CLOSED_SHELL ( 'NONE', ( #204, #185, #57, #218, #63, #14, #19 ) ) ;
#43 = AXIS2_PLACEMENT_3D ( 'NONE', #271, #50, #226 ) ;
#44 = PERSON_AND_ORGANIZATION ( #48, #159 ) ;
#45 = PLANE ( 'NONE',  #62 ) ;
#46 = PERSON_AND_ORGANIZATION ( #48, #159 ) ;
#47 = APPROVAL_ROLE ( '' ) ;
#48 = PERSON ( 'UNSPECIFIED', 'UNSPECIFIED', 'UNSPECIFIED', ('UNSPECIFIED'), ('UNSPECIFIED'), ('UNSPECIFIED') ) ;
#49 = ORIENTED_EDGE ( 'NONE', *, *, #193, .F. ) ;
#50 = DIRECTION ( 'NONE',  ( -3.491481338843133355E-15, 1.224646799147353207E-16, -1.000000000000000000 ) ) ;
#51 = APPROVAL ( #171, 'UNSPECIFIED' ) ;
#52 = FACE_BOUND ( 'NONE', #127, .T. ) ;
#53 = DIRECTION ( 'NONE',  ( 3.491481338843133355E-15, -1.224646799147353207E-16, 1.000000000000000000 ) ) ;
#54 = EDGE_LOOP ( 'NONE', ( #1 ) ) ;
#55 = VERTEX_POINT ( 'NONE', #144 ) ;
#56 = FACE_OUTER_BOUND ( 'NONE', #267, .T. ) ;
#57 = ADVANCED_FACE ( 'NONE', ( #6, #257 ), #15, .F. ) ;
#58 = ORIENTED_EDGE ( 'NONE', *, *, #134, .F. ) ;
#59 = EDGE_CURVE ( 'NONE', #21, #21, #208, .T. ) ;
#60 = CONICAL_SURFACE ( 'NONE', #179, 0.1824999999999992184, 0.2617993877991428575 ) ;
#61 = CARTESIAN_POINT ( 'NONE',  ( 1.047444401652940007E-13, 0.5999999999999963141, 30.00000000000000000 ) ) ;
#62 = AXIS2_PLACEMENT_3D ( 'NONE', #174, #73, #282 ) ;
#63 = ADVANCED_FACE ( 'NONE', ( #182, #10 ), #250, .T. ) ;
#64 = EDGE_LOOP ( 'NONE', ( #49 ) ) ;
#65 = APPROVAL_DATE_TIME ( #238, #51 ) ;
#66 = PERSON_AND_ORGANIZATION ( #48, #159 ) ;
#67 = CARTESIAN_POINT ( 'NONE',  ( 9.447029668924999975E-16, 0.1824999999999991906, 0.2705736835487477232 ) ) ;
#68 = ORIENTED_EDGE ( 'NONE', *, *, #105, .T. ) ;
#69 = PERSON_AND_ORGANIZATION_ROLE ( 'creator' ) ;
#70 = ADVANCED_FACE ( 'NONE', ( #223, #56 ), #139, .T. ) ;
#71 = FACE_BOUND ( 'NONE', #115, .T. ) ;
#72 = DATE_TIME_ROLE ( 'classification_date' ) ;
#73 = DIRECTION ( 'NONE',  ( -3.491481338843133355E-15, 1.224646799147353207E-16, -1.000000000000000000 ) ) ;
#74 = PERSON_AND_ORGANIZATION ( #48, #159 ) ;
#75 = FACE_OUTER_BOUND ( 'NONE', #3, .T. ) ;
#76 = CARTESIAN_POINT ( 'NONE',  ( 0.0000000000000000000, 0.0000000000000000000, 0.0000000000000000000 ) ) ;
#77 = LOCAL_TIME ( 11, 16, 23.00000000000000000, #114 ) ;
#78 = FACE_BOUND ( 'NONE', #39, .T. ) ;
#79 = MANIFOLD_SOLID_BREP ( 'Corps-Déplacer/Copier1[1]', #42 ) ;
#80 = DIRECTION ( 'NONE',  ( 0.0000000000000000000, 1.000000000000000000, 0.0000000000000000000 ) ) ;
#81 = ADVANCED_FACE ( 'NONE', ( #30 ), #121, .F. ) ;
#82 = CARTESIAN_POINT ( 'NONE',  ( 0.0000000000000000000, 0.0000000000000000000, 0.0000000000000000000 ) ) ;
#83 = CIRCLE ( 'NONE', #128, 0.1824999999999993849 ) ;
#84 = DIRECTION ( 'NONE',  ( 4.388115988828288404E-31, 1.000000000000000000, 1.224646799147353207E-16 ) ) ;
#85 = APPROVAL ( #220, 'UNSPECIFIED' ) ;
#86 = AXIS2_PLACEMENT_3D ( 'NONE', #8, #203, #265 ) ;
#87 = AXIS2_PLACEMENT_3D ( 'NONE', #199, #201, #141 ) ;
#88 = EDGE_LOOP ( 'NONE', ( #235 ) ) ;
#89 = VERTEX_POINT ( 'NONE', #149 ) ;
#90 = DIRECTION ( 'NONE',  ( 1.000000000000000000, 0.0000000000000000000, 0.0000000000000000000 ) ) ;
#91 = AXIS2_PLACEMENT_3D ( 'NONE', #36, #35, #233 ) ;
#92 = APPROVAL_DATE_TIME ( #283, #275 ) ;
#93 = DATE_AND_TIME ( #213, #23 ) ;
#94 = AXIS2_PLACEMENT_3D ( 'NONE', #82, #177, #104 ) ;
#95 = DIRECTION ( 'NONE',  ( -3.491481338843133355E-15, 1.224646799147353207E-16, -1.000000000000000000 ) ) ;
#96 = SHAPE_DEFINITION_REPRESENTATION ( #163, #117 ) ;
#97 = DIRECTION ( 'NONE',  ( 4.275831445896958607E-31, 1.000000000000000000, 1.224646799147353207E-16 ) ) ;
#98 = CC_DESIGN_PERSON_AND_ORGANIZATION_ASSIGNMENT ( #46, #256, ( #280 ) ) ;
#99 = CARTESIAN_POINT ( 'NONE',  ( 1.042207179644675275E-13, -3.655570695454848748E-15, 29.84999999999999787 ) ) ;
#100 = CARTESIAN_POINT ( 'NONE',  ( 6.736497342973952163E-15, -2.362845196036818923E-16, 1.929409522551256639 ) ) ;
#101 = APPROVAL_PERSON_ORGANIZATION ( #241, #85, #47 ) ;
#102 = DIRECTION ( 'NONE',  ( -4.275831445896958607E-31, -1.000000000000000000, -1.224646799147353207E-16 ) ) ;
#103 = CC_DESIGN_PERSON_AND_ORGANIZATION_ASSIGNMENT ( #25, #17, ( #231 ) ) ;
#104 = DIRECTION ( 'NONE',  ( 4.275831445896958607E-31, 1.000000000000000000, 1.224646799147352961E-16 ) ) ;
#105 = EDGE_CURVE ( 'NONE', #89, #89, #155, .T. ) ;
#106 = EDGE_LOOP ( 'NONE', ( #180 ) ) ;
#107 = ORIENTED_EDGE ( 'NONE', *, *, #167, .F. ) ;
#108 = UNCERTAINTY_MEASURE_WITH_UNIT (LENGTH_MEASURE( 1.000000000000000082E-05 ), #261, 'distance_accuracy_value', 'NONE');
#109 = EDGE_CURVE ( 'NONE', #245, #245, #83, .T. ) ;
#110 = PERSON_AND_ORGANIZATION_ROLE ( 'design_owner' ) ;
#111 = ORIENTED_EDGE ( 'NONE', *, *, #59, .T. ) ;
#112 = AXIS2_PLACEMENT_3D ( 'NONE', #76, #243, #97 ) ;
#113 = CONICAL_SURFACE ( 'NONE', #87, 0.7499999999999967804, 0.2617993877991426355 ) ;
#114 = COORDINATED_UNIVERSAL_TIME_OFFSET ( 1, 0, .AHEAD. ) ;
#115 = EDGE_LOOP ( 'NONE', ( #272 ) ) ;
#116 = CALENDAR_DATE ( 2021, 16, 12 ) ;
#117 = ADVANCED_BREP_SHAPE_REPRESENTATION ( '965642', ( #79, #260, #217 ), #125 ) ;
#118 = CARTESIAN_POINT ( 'NONE',  ( 6.284666409917638462E-15, -2.204364238465235083E-16, 1.799999999999999600 ) ) ;
#119 = EDGE_CURVE ( 'NONE', #181, #181, #216, .T. ) ;
#120 = CARTESIAN_POINT ( 'NONE',  ( 6.284666409917638462E-15, -2.168404344971008868E-16, 1.799999999999999600 ) ) ;
#121 = PLANE ( 'NONE',  #86 ) ;
#122 = FACE_OUTER_BOUND ( 'NONE', #106, .T. ) ;
#123 = PRODUCT_DEFINITION ( 'UNKNOWN', '', #280, #18 ) ;
#124 = FACE_OUTER_BOUND ( 'NONE', #189, .T. ) ;
#125 =( GEOMETRIC_REPRESENTATION_CONTEXT ( 3 ) GLOBAL_UNCERTAINTY_ASSIGNED_CONTEXT ( ( #108 ) ) GLOBAL_UNIT_ASSIGNED_CONTEXT ( ( #261, #237, #172 ) ) REPRESENTATION_CONTEXT ( 'NONE', 'WORKASPACE' ) );
#126 = DIRECTION ( 'NONE',  ( -3.491481338843133355E-15, 1.224646799147353207E-16, -1.000000000000000000 ) ) ;
#127 = EDGE_LOOP ( 'NONE', ( #276 ) ) ;
#128 = AXIS2_PLACEMENT_3D ( 'NONE', #118, #164, #80 ) ;
#129 = CC_DESIGN_PERSON_AND_ORGANIZATION_ASSIGNMENT ( #44, #219, ( #280 ) ) ;
#130 = LOCAL_TIME ( 11, 16, 23.00000000000000000, #175 ) ;
#131 = ORIENTED_EDGE ( 'NONE', *, *, #150, .F. ) ;
#132 = CALENDAR_DATE ( 2021, 16, 12 ) ;
#133 = DATE_AND_TIME ( #132, #77 ) ;
#134 = EDGE_CURVE ( 'NONE', #207, #207, #165, .T. ) ;
#135 = DIRECTION ( 'NONE',  ( -3.491481338843133355E-15, 1.224646799147353207E-16, -1.000000000000000000 ) ) ;
#136 = AXIS2_PLACEMENT_3D ( 'NONE', #214, #95, #156 ) ;
#137 = AXIS2_PLACEMENT_3D ( 'NONE', #160, #53, #102 ) ;
#138 = ORIENTED_EDGE ( 'NONE', *, *, #150, .T. ) ;
#139 = CYLINDRICAL_SURFACE ( 'NONE', #43, 0.1824999999999992739 ) ;
#140 = DIRECTION ( 'NONE',  ( -3.491481338843133355E-15, 1.224646799147353207E-16, -1.000000000000000000 ) ) ;
#141 = DIRECTION ( 'NONE',  ( 0.0000000000000000000, -1.000000000000000000, 0.0000000000000000000 ) ) ;
#142 = LOCAL_TIME ( 11, 16, 23.00000000000000000, #151 ) ;
#143 = DIRECTION ( 'NONE',  ( 0.0000000000000000000, 1.000000000000000000, 0.0000000000000000000 ) ) ;
#144 = CARTESIAN_POINT ( 'NONE',  ( -1.537847858936318862E-31, 0.1099999999999999867, -4.404571325722361763E-17 ) ) ;
#145 = DIRECTION ( 'NONE',  ( 0.0000000000000000000, -1.000000000000000000, 0.0000000000000000000 ) ) ;
#146 = EDGE_LOOP ( 'NONE', ( #205 ) ) ;
#147 = LOCAL_TIME ( 11, 16, 23.00000000000000000, #41 ) ;
#148 = EDGE_LOOP ( 'NONE', ( #58 ) ) ;
#149 = CARTESIAN_POINT ( 'NONE',  ( 5.237222008264700033E-15, 0.1824999999999991906, 1.500000000000000000 ) ) ;
#150 = EDGE_CURVE ( 'NONE', #268, #268, #239, .T. ) ;
#151 = COORDINATED_UNIVERSAL_TIME_OFFSET ( 1, 0, .AHEAD. ) ;
#152 = APPROVAL_ROLE ( '' ) ;
#153 = DATE_TIME_ROLE ( 'creation_date' ) ;
#154 = CC_DESIGN_SECURITY_CLASSIFICATION ( #231, ( #280 ) ) ;
#155 = CIRCLE ( 'NONE', #230, 0.1824999999999993572 ) ;
#156 = DIRECTION ( 'NONE',  ( 0.0000000000000000000, 1.000000000000000000, 0.0000000000000000000 ) ) ;
#157 = SECURITY_CLASSIFICATION_LEVEL ( 'unclassified' ) ;
#158 = PLANE ( 'NONE',  #137 ) ;
#159 = ORGANIZATION ( 'UNSPECIFIED', 'UNSPECIFIED', '' ) ;
#160 = CARTESIAN_POINT ( 'NONE',  ( 5.237222008264700033E-15, 1.368530801678937438E-33, 1.500000000000000000 ) ) ;
#161 = FACE_OUTER_BOUND ( 'NONE', #270, .T. ) ;
#162 = DIRECTION ( 'NONE',  ( -3.491481338843133355E-15, 1.224646799147353207E-16, -1.000000000000000000 ) ) ;
#163 = PRODUCT_DEFINITION_SHAPE ( 'NONE', 'NONE',  #123 ) ;
#164 = DIRECTION ( 'NONE',  ( -3.491481338843133355E-15, 1.224646799147353207E-16, -1.000000000000000000 ) ) ;
#165 = CIRCLE ( 'NONE', #255, 0.6000000000000000888 ) ;
#166 = ADVANCED_FACE ( 'NONE', ( #251 ), #228, .T. ) ;
#167 = EDGE_CURVE ( 'NONE', #55, #55, #16, .T. ) ;
#168 = APPROVAL_PERSON_ORGANIZATION ( #66, #51, #152 ) ;
#169 = ORIENTED_EDGE ( 'NONE', *, *, #266, .F. ) ;
#170 = CARTESIAN_POINT ( 'NONE',  ( 6.736497342973952163E-15, 0.1995370868554643962, 1.929409522551256639 ) ) ;
#171 = APPROVAL_STATUS ( 'not_yet_approved' ) ;
#172 =( NAMED_UNIT ( * ) SI_UNIT ( $, .STERADIAN. ) SOLID_ANGLE_UNIT ( ) );
#173 = PRODUCT ( '965642', '965642', '', ( #24 ) ) ;
#174 = CARTESIAN_POINT ( 'NONE',  ( 1.047444401652940007E-13, 4.499279347985518085E-33, 30.00000000000000000 ) ) ;
#175 = COORDINATED_UNIVERSAL_TIME_OFFSET ( 1, 0, .AHEAD. ) ;
#176 = EDGE_LOOP ( 'NONE', ( #212 ) ) ;
#177 = DIRECTION ( 'NONE',  ( -3.491481338843133355E-15, 1.224646799147353207E-16, -1.000000000000000000 ) ) ;
#178 = CARTESIAN_POINT ( 'NONE',  ( -2.008189317984984107E-31, 7.043779936590147428E-33, -5.751682804784449773E-17 ) ) ;
#179 = AXIS2_PLACEMENT_3D ( 'NONE', #247, #269, #145 ) ;
#180 = ORIENTED_EDGE ( 'NONE', *, *, #193, .T. ) ;
#181 = VERTEX_POINT ( 'NONE', #170 ) ;
#182 = FACE_OUTER_BOUND ( 'NONE', #64, .T. ) ;
#183 = DIRECTION ( 'NONE',  ( 0.0000000000000000000, 1.000000000000000000, 0.0000000000000000000 ) ) ;
#184 = VERTEX_POINT ( 'NONE', #202 ) ;
#185 = ADVANCED_FACE ( 'NONE', ( #124, #27 ), #263, .T. ) ;
#186 = EDGE_LOOP ( 'NONE', ( #169 ) ) ;
#187 = CC_DESIGN_DATE_AND_TIME_ASSIGNMENT ( #93, #72, ( #231 ) ) ;
#188 = CC_DESIGN_PERSON_AND_ORGANIZATION_ASSIGNMENT ( #20, #110, ( #173 ) ) ;
#189 = EDGE_LOOP ( 'NONE', ( #232 ) ) ;
#190 = CC_DESIGN_APPROVAL ( #85, ( #231 ) ) ;
#191 = CC_DESIGN_APPROVAL ( #51, ( #280 ) ) ;
#192 = APPLICATION_PROTOCOL_DEFINITION ( 'international standard', 'config_control_design', 1994, #244 ) ;
#193 = EDGE_CURVE ( 'NONE', #229, #229, #234, .T. ) ;
#194 = COORDINATED_UNIVERSAL_TIME_OFFSET ( 1, 0, .AHEAD. ) ;
#195 = PERSON_AND_ORGANIZATION ( #48, #159 ) ;
#196 = DATE_AND_TIME ( #236, #142 ) ;
#197 = DIRECTION ( 'NONE',  ( 0.0000000000000000000, 1.000000000000000000, 0.0000000000000000000 ) ) ;
#198 = CARTESIAN_POINT ( 'NONE',  ( 1.047444401652940007E-13, -3.673940397442059178E-15, 30.00000000000000000 ) ) ;
#199 = CARTESIAN_POINT ( 'NONE',  ( 1.390924144244890836E-14, -4.878705156335385154E-16, 3.983765082089080423 ) ) ;
#200 = AXIS2_PLACEMENT_3D ( 'NONE', #252, #206, #210 ) ;
#201 = DIRECTION ( 'NONE',  ( 3.491481338843133355E-15, -1.224646799147353207E-16, 1.000000000000000000 ) ) ;
#202 = CARTESIAN_POINT ( 'NONE',  ( 5.237222008264700033E-15, 0.1824999999999991906, 1.500000000000000000 ) ) ;
#203 = DIRECTION ( 'NONE',  ( 3.491481338843133355E-15, -1.224646799147353207E-16, 1.000000000000000000 ) ) ;
#204 = ADVANCED_FACE ( 'NONE', ( #75 ), #158, .F. ) ;
#205 = ORIENTED_EDGE ( 'NONE', *, *, #167, .T. ) ;
#206 = DIRECTION ( 'NONE',  ( -3.491481338843133355E-15, 1.224646799147353207E-16, -1.000000000000000000 ) ) ;
#207 = VERTEX_POINT ( 'NONE', #61 ) ;
#208 = CIRCLE ( 'NONE', #91, 0.1824999999999992184 ) ;
#209 = AXIS2_PLACEMENT_3D ( 'NONE', #120, #246, #84 ) ;
#210 = DIRECTION ( 'NONE',  ( 0.0000000000000000000, 1.000000000000000000, 0.0000000000000000000 ) ) ;
#211 = APPLICATION_CONTEXT ( 'configuration controlled 3d designs of mechanical parts and assemblies' ) ;
#212 = ORIENTED_EDGE ( 'NONE', *, *, #109, .F. ) ;
#213 = CALENDAR_DATE ( 2021, 16, 12 ) ;
#214 = CARTESIAN_POINT ( 'NONE',  ( 1.047444401652940007E-13, -3.673940397442059178E-15, 30.00000000000000000 ) ) ;
#215 = APPLICATION_PROTOCOL_DEFINITION ( 'international standard', 'config_control_design', 1994, #211 ) ;
#216 = CIRCLE ( 'NONE', #278, 0.1995370868554646460 ) ;
#217 = AXIS2_PLACEMENT_3D ( 'NONE', #2, #40, #90 ) ;
#218 = ADVANCED_FACE ( 'NONE', ( #52, #122 ), #113, .T. ) ;
#219 = PERSON_AND_ORGANIZATION_ROLE ( 'design_supplier' ) ;
#220 = APPROVAL_STATUS ( 'not_yet_approved' ) ;
#221 = CARTESIAN_POINT ( 'NONE',  ( 5.237222008264700033E-15, -1.836970198721029934E-16, 1.500000000000000000 ) ) ;
#222 = FACE_OUTER_BOUND ( 'NONE', #148, .T. ) ;
#223 = FACE_OUTER_BOUND ( 'NONE', #38, .T. ) ;
#224 = CARTESIAN_POINT ( 'NONE',  ( 5.237222008264700033E-15, 1.368530801678937438E-33, 1.500000000000000000 ) ) ;
#225 = CARTESIAN_POINT ( 'NONE',  ( 6.284666409917638462E-15, 0.1824999999999991906, 1.799999999999999600 ) ) ;
#226 = DIRECTION ( 'NONE',  ( 4.275831445896958607E-31, 1.000000000000000000, 1.224646799147353454E-16 ) ) ;
#227 = CC_DESIGN_DATE_AND_TIME_ASSIGNMENT ( #133, #153, ( #123 ) ) ;
#228 = PLANE ( 'NONE',  #29 ) ;
#229 = VERTEX_POINT ( 'NONE', #13 ) ;
#230 = AXIS2_PLACEMENT_3D ( 'NONE', #221, #33, #143 ) ;
#231 = SECURITY_CLASSIFICATION ( '', '', #157 ) ;
#232 = ORIENTED_EDGE ( 'NONE', *, *, #105, .F. ) ;
#233 = DIRECTION ( 'NONE',  ( 0.0000000000000000000, 1.000000000000000000, 0.0000000000000000000 ) ) ;
#234 = CIRCLE ( 'NONE', #273, 0.7499999999999967804 ) ;
#235 = ORIENTED_EDGE ( 'NONE', *, *, #109, .T. ) ;
#236 = CALENDAR_DATE ( 2021, 16, 12 ) ;
#237 =( NAMED_UNIT ( * ) PLANE_ANGLE_UNIT ( ) SI_UNIT ( $, .RADIAN. ) );
#238 = DATE_AND_TIME ( #116, #147 ) ;
#239 = CIRCLE ( 'NONE', #37, 0.7499999999999998890 ) ;
#240 = CIRCLE ( 'NONE', #200, 0.1824999999999993572 ) ;
#241 = PERSON_AND_ORGANIZATION ( #48, #159 ) ;
#242 = DIRECTION ( 'NONE',  ( 4.275831445896958607E-31, 1.000000000000000000, 1.224646799147353207E-16 ) ) ;
#243 = DIRECTION ( 'NONE',  ( -3.491481338843133355E-15, 1.224646799147353207E-16, -1.000000000000000000 ) ) ;
#244 = APPLICATION_CONTEXT ( 'configuration controlled 3d designs of mechanical parts and assemblies' ) ;
#245 = VERTEX_POINT ( 'NONE', #225 ) ;
#246 = DIRECTION ( 'NONE',  ( -3.491481338843133355E-15, 1.224646799147353207E-16, -1.000000000000000000 ) ) ;
#247 = CARTESIAN_POINT ( 'NONE',  ( 9.447029668924999975E-16, -3.313571954914828132E-17, 0.2705736835487477232 ) ) ;
#248 = CARTESIAN_POINT ( 'NONE',  ( 1.042207179644675275E-13, 0.7499999999999962252, 29.84999999999999787 ) ) ;
#249 = ADVANCED_FACE ( 'NONE', ( #78, #161 ), #60, .T. ) ;
#250 = CYLINDRICAL_SURFACE ( 'NONE', #94, 0.7499999999999983347 ) ;
#251 = FACE_OUTER_BOUND ( 'NONE', #186, .T. ) ;
#252 = CARTESIAN_POINT ( 'NONE',  ( 5.237222008264700033E-15, -1.836970198721029934E-16, 1.500000000000000000 ) ) ;
#253 = APPROVAL_PERSON_ORGANIZATION ( #195, #275, #281 ) ;
#254 = CONICAL_SURFACE ( 'NONE', #136, 0.6000000000000000888, 0.7853981633974450594 ) ;
#255 = AXIS2_PLACEMENT_3D ( 'NONE', #198, #162, #34 ) ;
#256 = PERSON_AND_ORGANIZATION_ROLE ( 'creator' ) ;
#257 = FACE_OUTER_BOUND ( 'NONE', #54, .T. ) ;
#258 = CALENDAR_DATE ( 2021, 16, 12 ) ;
#259 = EDGE_LOOP ( 'NONE', ( #138 ) ) ;
#260 = MANIFOLD_SOLID_BREP ( 'Corps-Déplacer/Copier1[2]', #28 ) ;
#261 =( LENGTH_UNIT ( ) NAMED_UNIT ( * ) SI_UNIT ( .MILLI., .METRE. ) );
#262 = DIRECTION ( 'NONE',  ( 0.0000000000000000000, 1.000000000000000000, 0.0000000000000000000 ) ) ;
#263 = CYLINDRICAL_SURFACE ( 'NONE', #112, 0.1824999999999993849 ) ;
#264 = CC_DESIGN_APPROVAL ( #275, ( #123 ) ) ;
#265 = DIRECTION ( 'NONE',  ( -4.275831445896958607E-31, -1.000000000000000000, -1.224646799147353207E-16 ) ) ;
#266 = EDGE_CURVE ( 'NONE', #184, #184, #240, .T. ) ;
#267 = EDGE_LOOP ( 'NONE', ( #279 ) ) ;
#268 = VERTEX_POINT ( 'NONE', #248 ) ;
#269 = DIRECTION ( 'NONE',  ( 3.491481338843133355E-15, -1.224646799147353207E-16, 1.000000000000000000 ) ) ;
#270 = EDGE_LOOP ( 'NONE', ( #111 ) ) ;
#271 = CARTESIAN_POINT ( 'NONE',  ( 0.0000000000000000000, 0.0000000000000000000, 0.0000000000000000000 ) ) ;
#272 = ORIENTED_EDGE ( 'NONE', *, *, #134, .T. ) ;
#273 = AXIS2_PLACEMENT_3D ( 'NONE', #11, #135, #262 ) ;
#274 = ORIENTED_EDGE ( 'NONE', *, *, #59, .F. ) ;
#275 = APPROVAL ( #277, 'UNSPECIFIED' ) ;
#276 = ORIENTED_EDGE ( 'NONE', *, *, #119, .F. ) ;
#277 = APPROVAL_STATUS ( 'not_yet_approved' ) ;
#278 = AXIS2_PLACEMENT_3D ( 'NONE', #100, #12, #183 ) ;
#279 = ORIENTED_EDGE ( 'NONE', *, *, #266, .T. ) ;
#280 = PRODUCT_DEFINITION_FORMATION_WITH_SPECIFIED_SOURCE ( 'ANY', '', #173, .NOT_KNOWN. ) ;
#281 = APPROVAL_ROLE ( '' ) ;
#282 = DIRECTION ( 'NONE',  ( 4.275831445896958607E-31, 1.000000000000000000, 1.224646799147353207E-16 ) ) ;
#283 = DATE_AND_TIME ( #258, #130 ) ;
ENDSEC;
END-ISO-10303-21;
