ISO-10303-21;
HEADER;
FILE_DESCRIPTION (( 'STEP AP203' ),
    '1' );
FILE_NAME ('965525.step',
    '2021-11-05T15:02:25',
    ( '' ),
    ( '' ),
    'SwSTEP 2.0',
    'SolidWorks 2019',
    '' );
FILE_SCHEMA (( 'CONFIG_CONTROL_DESIGN' ));
ENDSEC;

DATA;
#1 = PRODUCT ( '965525', '965525', '', ( #102 ) ) ;
#2 = APPROVAL ( #160, 'UNSPECIFIED' ) ;
#3 = CARTESIAN_POINT ( 'NONE',  ( 2.444036937190193601E-13, 5.499999999999994671, 70.00000000000000000 ) ) ;
#4 = EDGE_LOOP ( 'NONE', ( #62 ) ) ;
#5 = VERTEX_POINT ( 'NONE', #198 ) ;
#6 = VERTEX_POINT ( 'NONE', #176 ) ;
#7 = DIRECTION ( 'NONE',  ( 1.000000000000000000, 0.0000000000000000000, -3.492034497213728733E-15 ) ) ;
#8 = CARTESIAN_POINT ( 'NONE',  ( 2.444036937190193601E-13, -8.572527594031472993E-15, 70.00000000000000000 ) ) ;
#9 = LOCAL_TIME ( 16, 2, 25.00000000000000000, #22 ) ;
#10 = DIRECTION ( 'NONE',  ( 4.275831445896958607E-31, 1.000000000000000000, 1.224646799147353454E-16 ) ) ;
#11 = APPLICATION_CONTEXT ( 'configuration controlled 3d designs of mechanical parts and assemblies' ) ;
#12 = UNCERTAINTY_MEASURE_WITH_UNIT (LENGTH_MEASURE( 1.000000000000000082E-05 ), #125, 'distance_accuracy_value', 'NONE');
#13 = FACE_OUTER_BOUND ( 'NONE', #167, .T. ) ;
#14 = EDGE_CURVE ( 'NONE', #25, #25, #85, .T. ) ;
#15 = PRODUCT_DEFINITION_FORMATION_WITH_SPECIFIED_SOURCE ( 'ANY', '', #1, .NOT_KNOWN. ) ;
#16 = AXIS2_PLACEMENT_3D ( 'NONE', #61, #113, #58 ) ;
#17 = DATE_TIME_ROLE ( 'creation_date' ) ;
#18 = SECURITY_CLASSIFICATION_LEVEL ( 'unclassified' ) ;
#19 = CARTESIAN_POINT ( 'NONE',  ( 8.728703347107833388E-14, 4.499279347985566255E-32, 25.00000000000000000 ) ) ;
#20 = PRODUCT_DEFINITION_SHAPE ( 'NONE', 'NONE',  #71 ) ;
#21 = APPLICATION_CONTEXT ( 'configuration controlled 3d designs of mechanical parts and assemblies' ) ;
#22 = COORDINATED_UNIVERSAL_TIME_OFFSET ( 1, 0, .AHEAD. ) ;
#23 = ORIENTED_EDGE ( 'NONE', *, *, #191, .T. ) ;
#24 = CC_DESIGN_PERSON_AND_ORGANIZATION_ASSIGNMENT ( #53, #123, ( #15 ) ) ;
#25 = VERTEX_POINT ( 'NONE', #3 ) ;
#26 = MANIFOLD_SOLID_BREP ( 'Corps-Déplacer/Copier1[1]', #78 ) ;
#27 = PERSON_AND_ORGANIZATION ( #189, #138 ) ;
#28 = AXIS2_PLACEMENT_3D ( 'NONE', #133, #83, #7 ) ;
#29 = VERTEX_POINT ( 'NONE', #55 ) ;
#30 = ORIENTED_EDGE ( 'NONE', *, *, #159, .T. ) ;
#31 = DIRECTION ( 'NONE',  ( -3.491481338843133355E-15, 1.224646799147353207E-16, -1.000000000000000000 ) ) ;
#32 = LOCAL_TIME ( 16, 2, 25.00000000000000000, #157 ) ;
#33 = DIRECTION ( 'NONE',  ( -4.275831445896958607E-31, -1.000000000000000000, -1.224646799147353207E-16 ) ) ;
#34 = EDGE_CURVE ( 'NONE', #5, #5, #151, .T. ) ;
#35 = PERSON_AND_ORGANIZATION_ROLE ( 'design_owner' ) ;
#36 = DIRECTION ( 'NONE',  ( 0.0000000000000000000, 0.0000000000000000000, 1.000000000000000000 ) ) ;
#37 = CIRCLE ( 'NONE', #64, 6.000000000000002665 ) ;
#38 = CC_DESIGN_PERSON_AND_ORGANIZATION_ASSIGNMENT ( #49, #73, ( #71 ) ) ;
#39 = CALENDAR_DATE ( 2021, 5, 11 ) ;
#40 = COORDINATED_UNIVERSAL_TIME_OFFSET ( 1, 0, .AHEAD. ) ;
#41 = DIRECTION ( 'NONE',  ( 3.491481338843133355E-15, -0.0000000000000000000, 1.000000000000000000 ) ) ;
#42 = CARTESIAN_POINT ( 'NONE',  ( 2.426579530495977493E-13, -8.511295254074105418E-15, 69.50000000000000000 ) ) ;
#43 = AXIS2_PLACEMENT_3D ( 'NONE', #8, #169, #46 ) ;
#44 = DIRECTION ( 'NONE',  ( 1.000000000000000000, 0.0000000000000000000, -3.492034497213728733E-15 ) ) ;
#45 = ORIENTED_EDGE ( 'NONE', *, *, #173, .T. ) ;
#46 = DIRECTION ( 'NONE',  ( 0.0000000000000000000, 1.000000000000000000, 0.0000000000000000000 ) ) ;
#47 = ADVANCED_FACE ( 'NONE', ( #82 ), #150, .T. ) ;
#48 = EDGE_LOOP ( 'NONE', ( #77 ) ) ;
#49 = PERSON_AND_ORGANIZATION ( #189, #138 ) ;
#50 = LOCAL_TIME ( 16, 2, 25.00000000000000000, #40 ) ;
#51 = AXIS2_PLACEMENT_3D ( 'NONE', #76, #81, #214 ) ;
#52 = COORDINATED_UNIVERSAL_TIME_OFFSET ( 1, 0, .AHEAD. ) ;
#53 = PERSON_AND_ORGANIZATION ( #189, #138 ) ;
#54 = ADVANCED_BREP_SHAPE_REPRESENTATION ( '965525', ( #26, #175, #219 ), #108 ) ;
#55 = CARTESIAN_POINT ( 'NONE',  ( 8.728703347107833388E-14, 5.999999999999993783, 25.00000000000000000 ) ) ;
#56 = CARTESIAN_POINT ( 'NONE',  ( -9.309863128016985672E-33, 0.0000000000000000000, -2.666450776764487616E-18 ) ) ;
#57 = CC_DESIGN_PERSON_AND_ORGANIZATION_ASSIGNMENT ( #197, #208, ( #15 ) ) ;
#58 = DIRECTION ( 'NONE',  ( 0.0000000000000000000, 1.000000000000000000, 0.0000000000000000000 ) ) ;
#59 = EDGE_LOOP ( 'NONE', ( #99 ) ) ;
#60 = DATE_AND_TIME ( #106, #50 ) ;
#61 = CARTESIAN_POINT ( 'NONE',  ( 2.444036937190193601E-13, -8.572527594031472993E-15, 70.00000000000000000 ) ) ;
#62 = ORIENTED_EDGE ( 'NONE', *, *, #139, .T. ) ;
#63 = APPROVAL_PERSON_ORGANIZATION ( #72, #206, #192 ) ;
#64 = AXIS2_PLACEMENT_3D ( 'NONE', #42, #164, #79 ) ;
#65 = CARTESIAN_POINT ( 'NONE',  ( 8.728703347107833388E-14, 4.499279347985566255E-32, 25.00000000000000000 ) ) ;
#66 = CARTESIAN_POINT ( 'NONE',  ( 6.982962677686266711E-16, 0.0000000000000000000, 0.2000000000000000111 ) ) ;
#67 = ORIENTED_EDGE ( 'NONE', *, *, #34, .F. ) ;
#68 = AXIS2_PLACEMENT_3D ( 'NONE', #66, #116, #44 ) ;
#69 = CARTESIAN_POINT ( 'NONE',  ( 0.0000000000000000000, 0.0000000000000000000, 0.0000000000000000000 ) ) ;
#70 = PERSON_AND_ORGANIZATION ( #189, #138 ) ;
#71 = PRODUCT_DEFINITION ( 'UNKNOWN', '', #15, #118 ) ;
#72 = PERSON_AND_ORGANIZATION ( #189, #138 ) ;
#73 = PERSON_AND_ORGANIZATION_ROLE ( 'creator' ) ;
#74 = CC_DESIGN_PERSON_AND_ORGANIZATION_ASSIGNMENT ( #194, #177, ( #188 ) ) ;
#75 = DIRECTION ( 'NONE',  ( -4.275831445896958607E-31, -1.000000000000000000, -1.224646799147353207E-16 ) ) ;
#76 = CARTESIAN_POINT ( 'NONE',  ( 2.444036937190193601E-13, 4.124339402320098021E-32, 70.00000000000000000 ) ) ;
#77 = ORIENTED_EDGE ( 'NONE', *, *, #14, .T. ) ;
#78 = CLOSED_SHELL ( 'NONE', ( #212, #80, #180, #196 ) ) ;
#79 = DIRECTION ( 'NONE',  ( 0.0000000000000000000, 1.000000000000000000, 0.0000000000000000000 ) ) ;
#80 = ADVANCED_FACE ( 'NONE', ( #87, #200 ), #101, .T. ) ;
#81 = DIRECTION ( 'NONE',  ( -3.491481338843133355E-15, 1.224646799147353207E-16, -1.000000000000000000 ) ) ;
#82 = FACE_OUTER_BOUND ( 'NONE', #59, .T. ) ;
#83 = DIRECTION ( 'NONE',  ( 3.491481338843133355E-15, -0.0000000000000000000, 1.000000000000000000 ) ) ;
#84 = LOCAL_TIME ( 16, 2, 25.00000000000000000, #52 ) ;
#85 = CIRCLE ( 'NONE', #43, 5.500000000000003553 ) ;
#86 = DIRECTION ( 'NONE',  ( 4.275831445896959482E-31, 1.000000000000000000, 1.224646799147353207E-16 ) ) ;
#87 = FACE_OUTER_BOUND ( 'NONE', #126, .T. ) ;
#88 = AXIS2_PLACEMENT_3D ( 'NONE', #152, #216, #170 ) ;
#89 = PERSON_AND_ORGANIZATION ( #189, #138 ) ;
#90 = CC_DESIGN_APPROVAL ( #135, ( #71 ) ) ;
#91 = CALENDAR_DATE ( 2021, 5, 11 ) ;
#92 = COORDINATED_UNIVERSAL_TIME_OFFSET ( 1, 0, .AHEAD. ) ;
#93 = FACE_OUTER_BOUND ( 'NONE', #201, .T. ) ;
#94 = ADVANCED_FACE ( 'NONE', ( #217, #130 ), #193, .T. ) ;
#95 = DIRECTION ( 'NONE',  ( 0.0000000000000000000, 1.000000000000000000, 0.0000000000000000000 ) ) ;
#96 = DIRECTION ( 'NONE',  ( -4.275831445896958607E-31, -1.000000000000000000, -1.224646799147353207E-16 ) ) ;
#97 = ORIENTED_EDGE ( 'NONE', *, *, #191, .F. ) ;
#98 = ORIENTED_EDGE ( 'NONE', *, *, #159, .F. ) ;
#99 = ORIENTED_EDGE ( 'NONE', *, *, #139, .F. ) ;
#100 = CIRCLE ( 'NONE', #203, 5.800000000000002487 ) ;
#101 = CYLINDRICAL_SURFACE ( 'NONE', #182, 6.000000000000000000 ) ;
#102 = MECHANICAL_CONTEXT ( 'NONE', #11, 'mechanical' ) ;
#103 = AXIS2_PLACEMENT_3D ( 'NONE', #162, #144, #75 ) ;
#104 = DIRECTION ( 'NONE',  ( 1.000000000000000000, 0.0000000000000000000, 0.0000000000000000000 ) ) ;
#105 = SHAPE_DEFINITION_REPRESENTATION ( #20, #54 ) ;
#106 = CALENDAR_DATE ( 2021, 5, 11 ) ;
#107 =( NAMED_UNIT ( * ) SI_UNIT ( $, .STERADIAN. ) SOLID_ANGLE_UNIT ( ) );
#108 =( GEOMETRIC_REPRESENTATION_CONTEXT ( 3 ) GLOBAL_UNCERTAINTY_ASSIGNED_CONTEXT ( ( #12 ) ) GLOBAL_UNIT_ASSIGNED_CONTEXT ( ( #125, #209, #107 ) ) REPRESENTATION_CONTEXT ( 'NONE', 'WORKASPACE' ) );
#109 = VERTEX_POINT ( 'NONE', #147 ) ;
#110 = CC_DESIGN_PERSON_AND_ORGANIZATION_ASSIGNMENT ( #70, #35, ( #1 ) ) ;
#111 = DIRECTION ( 'NONE',  ( 1.000000000000000000, 0.0000000000000000000, -3.491481338843132961E-15 ) ) ;
#112 = DATE_AND_TIME ( #142, #119 ) ;
#113 = DIRECTION ( 'NONE',  ( -3.491481338843133355E-15, 1.224646799147353207E-16, -1.000000000000000000 ) ) ;
#114 = APPROVAL_PERSON_ORGANIZATION ( #89, #135, #156 ) ;
#115 = FACE_OUTER_BOUND ( 'NONE', #178, .T. ) ;
#116 = DIRECTION ( 'NONE',  ( 3.491481338843133355E-15, -0.0000000000000000000, 1.000000000000000000 ) ) ;
#117 = EDGE_LOOP ( 'NONE', ( #67 ) ) ;
#118 = DESIGN_CONTEXT ( 'detailed design', #21, 'design' ) ;
#119 = LOCAL_TIME ( 16, 2, 25.00000000000000000, #92 ) ;
#120 = ADVANCED_FACE ( 'NONE', ( #132, #115 ), #199, .T. ) ;
#121 = PRODUCT_RELATED_PRODUCT_CATEGORY ( 'detail', '', ( #1 ) ) ;
#122 = APPROVAL_DATE_TIME ( #207, #206 ) ;
#123 = PERSON_AND_ORGANIZATION_ROLE ( 'design_supplier' ) ;
#124 = VERTEX_POINT ( 'NONE', #166 ) ;
#125 =( LENGTH_UNIT ( ) NAMED_UNIT ( * ) SI_UNIT ( .MILLI., .METRE. ) );
#126 = EDGE_LOOP ( 'NONE', ( #185 ) ) ;
#127 = CIRCLE ( 'NONE', #88, 5.999999999999997335 ) ;
#128 = PLANE ( 'NONE',  #103 ) ;
#129 = FACE_OUTER_BOUND ( 'NONE', #165, .T. ) ;
#130 = FACE_OUTER_BOUND ( 'NONE', #117, .T. ) ;
#131 = CC_DESIGN_APPROVAL ( #2, ( #15 ) ) ;
#132 = FACE_OUTER_BOUND ( 'NONE', #4, .T. ) ;
#133 = CARTESIAN_POINT ( 'NONE',  ( 6.982962677686266711E-16, 0.0000000000000000000, 0.2000000000000000111 ) ) ;
#134 = EDGE_LOOP ( 'NONE', ( #30 ) ) ;
#135 = APPROVAL ( #171, 'UNSPECIFIED' ) ;
#136 = APPLICATION_PROTOCOL_DEFINITION ( 'international standard', 'config_control_design', 1994, #21 ) ;
#137 = CC_DESIGN_APPROVAL ( #206, ( #188 ) ) ;
#138 = ORGANIZATION ( 'UNSPECIFIED', 'UNSPECIFIED', '' ) ;
#139 = EDGE_CURVE ( 'NONE', #29, #29, #127, .T. ) ;
#140 = APPROVAL_STATUS ( 'not_yet_approved' ) ;
#141 = APPROVAL_DATE_TIME ( #60, #2 ) ;
#142 = CALENDAR_DATE ( 2021, 5, 11 ) ;
#143 = CARTESIAN_POINT ( 'NONE',  ( 8.728703347107833388E-14, -3.061616997868383043E-15, 25.00000000000000000 ) ) ;
#144 = DIRECTION ( 'NONE',  ( 3.491481338843133355E-15, -1.224646799147353207E-16, 1.000000000000000000 ) ) ;
#145 = AXIS2_PLACEMENT_3D ( 'NONE', #19, #179, #96 ) ;
#146 = FACE_OUTER_BOUND ( 'NONE', #168, .T. ) ;
#147 = CARTESIAN_POINT ( 'NONE',  ( 2.426579530495977493E-13, 5.999999999999993783, 69.50000000000000000 ) ) ;
#148 = DIRECTION ( 'NONE',  ( 3.491481338843133355E-15, -1.224646799147353207E-16, 1.000000000000000000 ) ) ;
#149 = CC_DESIGN_SECURITY_CLASSIFICATION ( #188, ( #15 ) ) ;
#150 = PLANE ( 'NONE',  #163 ) ;
#151 = CIRCLE ( 'NONE', #28, 6.000000000000000000 ) ;
#152 = CARTESIAN_POINT ( 'NONE',  ( 8.728703347107833388E-14, -3.061616997868383043E-15, 25.00000000000000000 ) ) ;
#153 = ADVANCED_FACE ( 'NONE', ( #13 ), #128, .F. ) ;
#154 = CARTESIAN_POINT ( 'NONE',  ( 0.0000000000000000000, 0.0000000000000000000, 0.0000000000000000000 ) ) ;
#155 = CONICAL_SURFACE ( 'NONE', #16, 5.500000000000003553, 0.7853981633974473908 ) ;
#156 = APPROVAL_ROLE ( '' ) ;
#157 = COORDINATED_UNIVERSAL_TIME_OFFSET ( 1, 0, .AHEAD. ) ;
#158 = CC_DESIGN_DATE_AND_TIME_ASSIGNMENT ( #161, #221, ( #188 ) ) ;
#159 = EDGE_CURVE ( 'NONE', #109, #109, #37, .T. ) ;
#160 = APPROVAL_STATUS ( 'not_yet_approved' ) ;
#161 = DATE_AND_TIME ( #91, #9 ) ;
#162 = CARTESIAN_POINT ( 'NONE',  ( -5.344810930312313941E-31, 1.874707312634112280E-32, -1.530814691990667581E-16 ) ) ;
#163 = AXIS2_PLACEMENT_3D ( 'NONE', #65, #148, #33 ) ;
#164 = DIRECTION ( 'NONE',  ( -3.491481338843133355E-15, 1.224646799147353207E-16, -1.000000000000000000 ) ) ;
#165 = EDGE_LOOP ( 'NONE', ( #45 ) ) ;
#166 = CARTESIAN_POINT ( 'NONE',  ( 8.728703347107833388E-14, 5.999999999999993783, 25.00000000000000000 ) ) ;
#167 = EDGE_LOOP ( 'NONE', ( #97 ) ) ;
#168 = EDGE_LOOP ( 'NONE', ( #98 ) ) ;
#169 = DIRECTION ( 'NONE',  ( -3.491481338843133355E-15, 1.224646799147353207E-16, -1.000000000000000000 ) ) ;
#170 = DIRECTION ( 'NONE',  ( 0.0000000000000000000, 1.000000000000000000, 0.0000000000000000000 ) ) ;
#171 = APPROVAL_STATUS ( 'not_yet_approved' ) ;
#172 = AXIS2_PLACEMENT_3D ( 'NONE', #143, #211, #95 ) ;
#173 = EDGE_CURVE ( 'NONE', #124, #124, #205, .T. ) ;
#174 = CLOSED_SHELL ( 'NONE', ( #120, #47, #94, #153 ) ) ;
#175 = MANIFOLD_SOLID_BREP ( 'Corps-Déplacer/Copier1[2]', #174 ) ;
#176 = CARTESIAN_POINT ( 'NONE',  ( 5.800000000000002487, 0.0000000000000000000, -2.025325821606694700E-14 ) ) ;
#177 = PERSON_AND_ORGANIZATION_ROLE ( 'classification_officer' ) ;
#178 = EDGE_LOOP ( 'NONE', ( #202 ) ) ;
#179 = DIRECTION ( 'NONE',  ( 3.491481338843133355E-15, -1.224646799147353207E-16, 1.000000000000000000 ) ) ;
#180 = ADVANCED_FACE ( 'NONE', ( #146, #195 ), #155, .T. ) ;
#181 = PLANE ( 'NONE',  #145 ) ;
#182 = AXIS2_PLACEMENT_3D ( 'NONE', #154, #215, #86 ) ;
#183 = ORIENTED_EDGE ( 'NONE', *, *, #14, .F. ) ;
#184 = CARTESIAN_POINT ( 'NONE',  ( 0.0000000000000000000, 0.0000000000000000000, 0.0000000000000000000 ) ) ;
#185 = ORIENTED_EDGE ( 'NONE', *, *, #173, .F. ) ;
#186 = AXIS2_PLACEMENT_3D ( 'NONE', #184, #31, #10 ) ;
#187 = APPROVAL_DATE_TIME ( #204, #135 ) ;
#188 = SECURITY_CLASSIFICATION ( '', '', #18 ) ;
#189 = PERSON ( 'UNSPECIFIED', 'UNSPECIFIED', 'UNSPECIFIED', ('UNSPECIFIED'), ('UNSPECIFIED'), ('UNSPECIFIED') ) ;
#190 = APPLICATION_PROTOCOL_DEFINITION ( 'international standard', 'config_control_design', 1994, #11 ) ;
#191 = EDGE_CURVE ( 'NONE', #6, #6, #100, .T. ) ;
#192 = APPROVAL_ROLE ( '' ) ;
#193 = CONICAL_SURFACE ( 'NONE', #68, 6.000000000000000000, 0.7853981633974430610 ) ;
#194 = PERSON_AND_ORGANIZATION ( #189, #138 ) ;
#195 = FACE_BOUND ( 'NONE', #48, .T. ) ;
#196 = ADVANCED_FACE ( 'NONE', ( #93 ), #210, .F. ) ;
#197 = PERSON_AND_ORGANIZATION ( #189, #138 ) ;
#198 = CARTESIAN_POINT ( 'NONE',  ( 6.000000000000000888, 0.0000000000000000000, 0.1999999999999790556 ) ) ;
#199 = CYLINDRICAL_SURFACE ( 'NONE', #186, 5.999999999999995559 ) ;
#200 = FACE_OUTER_BOUND ( 'NONE', #134, .T. ) ;
#201 = EDGE_LOOP ( 'NONE', ( #183 ) ) ;
#202 = ORIENTED_EDGE ( 'NONE', *, *, #34, .T. ) ;
#203 = AXIS2_PLACEMENT_3D ( 'NONE', #56, #41, #111 ) ;
#204 = DATE_AND_TIME ( #220, #32 ) ;
#205 = CIRCLE ( 'NONE', #172, 5.999999999999997335 ) ;
#206 = APPROVAL ( #140, 'UNSPECIFIED' ) ;
#207 = DATE_AND_TIME ( #39, #84 ) ;
#208 = PERSON_AND_ORGANIZATION_ROLE ( 'creator' ) ;
#209 =( NAMED_UNIT ( * ) PLANE_ANGLE_UNIT ( ) SI_UNIT ( $, .RADIAN. ) );
#210 = PLANE ( 'NONE',  #51 ) ;
#211 = DIRECTION ( 'NONE',  ( -3.491481338843133355E-15, 1.224646799147353207E-16, -1.000000000000000000 ) ) ;
#212 = ADVANCED_FACE ( 'NONE', ( #129 ), #181, .F. ) ;
#213 = EDGE_LOOP ( 'NONE', ( #23 ) ) ;
#214 = DIRECTION ( 'NONE',  ( 4.275831445896958607E-31, 1.000000000000000000, 1.224646799147353207E-16 ) ) ;
#215 = DIRECTION ( 'NONE',  ( -3.491481338843133355E-15, 1.224646799147353207E-16, -1.000000000000000000 ) ) ;
#216 = DIRECTION ( 'NONE',  ( -3.491481338843133355E-15, 1.224646799147353207E-16, -1.000000000000000000 ) ) ;
#217 = FACE_BOUND ( 'NONE', #213, .T. ) ;
#218 = CC_DESIGN_DATE_AND_TIME_ASSIGNMENT ( #112, #17, ( #71 ) ) ;
#219 = AXIS2_PLACEMENT_3D ( 'NONE', #69, #36, #104 ) ;
#220 = CALENDAR_DATE ( 2021, 5, 11 ) ;
#221 = DATE_TIME_ROLE ( 'classification_date' ) ;
#222 = APPROVAL_ROLE ( '' ) ;
#223 = APPROVAL_PERSON_ORGANIZATION ( #27, #2, #222 ) ;
ENDSEC;
END-ISO-10303-21;
