ISO-10303-21;
HEADER;
FILE_DESCRIPTION (( 'STEP AP203' ),
    '1' );
FILE_NAME ('965458.step',
    '2021-11-08T12:44:22',
    ( '' ),
    ( '' ),
    'SwSTEP 2.0',
    'SolidWorks 2019',
    '' );
FILE_SCHEMA (( 'CONFIG_CONTROL_DESIGN' ));
ENDSEC;

DATA;
#1 = PERSON_AND_ORGANIZATION ( #55, #185 ) ;
#2 = ORIENTED_EDGE ( 'NONE', *, *, #132, .F. ) ;
#3 = LOCAL_TIME ( 13, 44, 22.00000000000000000, #169 ) ;
#4 = PLANE ( 'NONE',  #159 ) ;
#5 = CC_DESIGN_DATE_AND_TIME_ASSIGNMENT ( #10, #144, ( #97 ) ) ;
#6 = FACE_OUTER_BOUND ( 'NONE', #141, .T. ) ;
#7 = CARTESIAN_POINT ( 'NONE',  ( -8.551700045867646674E-31, 2.999532597218505004E-32, -2.449304239644358043E-16 ) ) ;
#8 = CARTESIAN_POINT ( 'NONE',  ( 5.237222008264699244E-15, -1.626303258728260102E-16, 1.499999999999999778 ) ) ;
#9 = ORIENTED_EDGE ( 'NONE', *, *, #33, .T. ) ;
#10 = DATE_AND_TIME ( #163, #203 ) ;
#11 = VERTEX_POINT ( 'NONE', #63 ) ;
#12 = CARTESIAN_POINT ( 'NONE',  ( 1.521547007798042960E-14, -5.339421732565490225E-16, 4.357883832488681719 ) ) ;
#13 = CC_DESIGN_APPROVAL ( #88, ( #105 ) ) ;
#14 = ORIENTED_EDGE ( 'NONE', *, *, #33, .F. ) ;
#15 = APPLICATION_PROTOCOL_DEFINITION ( 'international standard', 'config_control_design', 1994, #196 ) ;
#16 = AXIS2_PLACEMENT_3D ( 'NONE', #188, #110, #175 ) ;
#17 = EDGE_LOOP ( 'NONE', ( #19 ) ) ;
#18 = PERSON_AND_ORGANIZATION ( #55, #185 ) ;
#19 = ORIENTED_EDGE ( 'NONE', *, *, #47, .F. ) ;
#20 = DIRECTION ( 'NONE',  ( 0.0000000000000000000, 1.000000000000000000, 0.0000000000000000000 ) ) ;
#21 = CARTESIAN_POINT ( 'NONE',  ( 0.0000000000000000000, 0.0000000000000000000, 0.0000000000000000000 ) ) ;
#22 = CC_DESIGN_PERSON_AND_ORGANIZATION_ASSIGNMENT ( #18, #86, ( #72 ) ) ;
#23 = DIRECTION ( 'NONE',  ( -4.275831445896958607E-31, -1.000000000000000000, -1.224646799147353207E-16 ) ) ;
#24 = DESIGN_CONTEXT ( 'detailed design', #216, 'design' ) ;
#25 = APPROVAL_PERSON_ORGANIZATION ( #57, #42, #30 ) ;
#26 = DIRECTION ( 'NONE',  ( -4.277877074299981008E-31, -1.000000000000000000, -1.225232690407966567E-16 ) ) ;
#27 = VERTEX_POINT ( 'NONE', #179 ) ;
#28 = AXIS2_PLACEMENT_3D ( 'NONE', #21, #142, #192 ) ;
#29 = APPROVAL_DATE_TIME ( #41, #49 ) ;
#30 = APPROVAL_ROLE ( '' ) ;
#31 = AXIS2_PLACEMENT_3D ( 'NONE', #68, #178, #26 ) ;
#32 = CALENDAR_DATE ( 2021, 8, 11 ) ;
#33 = EDGE_CURVE ( 'NONE', #146, #146, #208, .T. ) ;
#34 = AXIS2_PLACEMENT_3D ( 'NONE', #145, #44, #218 ) ;
#35 = ORIENTED_EDGE ( 'NONE', *, *, #219, .T. ) ;
#36 = DIRECTION ( 'NONE',  ( 3.491481338843133355E-15, -1.224646799147353207E-16, 1.000000000000000000 ) ) ;
#37 = FACE_BOUND ( 'NONE', #207, .T. ) ;
#38 = EDGE_LOOP ( 'NONE', ( #100 ) ) ;
#39 = DIRECTION ( 'NONE',  ( 3.491481338843133355E-15, -1.225232690407966814E-16, 1.000000000000000000 ) ) ;
#40 = LOCAL_TIME ( 13, 44, 22.00000000000000000, #120 ) ;
#41 = DATE_AND_TIME ( #81, #46 ) ;
#42 = APPROVAL ( #128, 'UNSPECIFIED' ) ;
#43 = CIRCLE ( 'NONE', #101, 1.599999999999998312 ) ;
#44 = DIRECTION ( 'NONE',  ( 3.491481338843133355E-15, -1.225232690407966814E-16, 1.000000000000000000 ) ) ;
#45 = COORDINATED_UNIVERSAL_TIME_OFFSET ( 1, 0, .AHEAD. ) ;
#46 = LOCAL_TIME ( 13, 44, 22.00000000000000000, #45 ) ;
#47 = EDGE_CURVE ( 'NONE', #27, #27, #43, .T. ) ;
#48 = DATE_AND_TIME ( #102, #3 ) ;
#49 = APPROVAL ( #148, 'UNSPECIFIED' ) ;
#50 = DIRECTION ( 'NONE',  ( 3.491481338843133355E-15, -1.224646799147353207E-16, 1.000000000000000000 ) ) ;
#51 = DIRECTION ( 'NONE',  ( 3.491481338843133355E-15, -1.224646799147353207E-16, 1.000000000000000000 ) ) ;
#52 = CARTESIAN_POINT ( 'NONE',  ( 1.521547007798042960E-14, -5.339421732565490225E-16, 4.357883832488681719 ) ) ;
#53 = CIRCLE ( 'NONE', #186, 1.999999999999996669 ) ;
#54 = FACE_OUTER_BOUND ( 'NONE', #161, .T. ) ;
#55 = PERSON ( 'UNSPECIFIED', 'UNSPECIFIED', 'UNSPECIFIED', ('UNSPECIFIED'), ('UNSPECIFIED'), ('UNSPECIFIED') ) ;
#56 = CARTESIAN_POINT ( 'NONE',  ( -2.025941305359930978E-30, 0.0000000000000000000, -5.802526517387047816E-16 ) ) ;
#57 = PERSON_AND_ORGANIZATION ( #55, #185 ) ;
#58 = MANIFOLD_SOLID_BREP ( 'Corps-Déplacer/Copier1[2]', #180 ) ;
#59 = DIRECTION ( 'NONE',  ( 0.0000000000000000000, -1.000000000000000000, 0.0000000000000000000 ) ) ;
#60 = PRODUCT_DEFINITION_SHAPE ( 'NONE', 'NONE',  #97 ) ;
#61 = ADVANCED_FACE ( 'NONE', ( #90, #177 ), #84, .T. ) ;
#62 = APPROVAL_ROLE ( '' ) ;
#63 = CARTESIAN_POINT ( 'NONE',  ( 1.521547007798042960E-14, -1.999999999999997113, 4.357883832488681719 ) ) ;
#64 = PERSON_AND_ORGANIZATION_ROLE ( 'classification_officer' ) ;
#65 = PERSON_AND_ORGANIZATION_ROLE ( 'creator' ) ;
#66 = EDGE_LOOP ( 'NONE', ( #2 ) ) ;
#67 = LOCAL_TIME ( 13, 44, 22.00000000000000000, #116 ) ;
#68 = CARTESIAN_POINT ( 'NONE',  ( -1.497256976004992827E-31, -6.584026875086181989E-32, -4.288314416427881014E-17 ) ) ;
#69 = CIRCLE ( 'NONE', #87, 1.999999999999998224 ) ;
#70 = PLANE ( 'NONE',  #16 ) ;
#71 = CYLINDRICAL_SURFACE ( 'NONE', #28, 1.999999999999996225 ) ;
#72 = PRODUCT_DEFINITION_FORMATION_WITH_SPECIFIED_SOURCE ( 'ANY', '', #193, .NOT_KNOWN. ) ;
#73 = AXIS2_PLACEMENT_3D ( 'NONE', #52, #107, #92 ) ;
#74 = FACE_OUTER_BOUND ( 'NONE', #75, .T. ) ;
#75 = EDGE_LOOP ( 'NONE', ( #118 ) ) ;
#76 = DIRECTION ( 'NONE',  ( -4.277877074299986263E-31, -1.000000000000000000, -1.225232690407967060E-16 ) ) ;
#77 =( NAMED_UNIT ( * ) SI_UNIT ( $, .STERADIAN. ) SOLID_ANGLE_UNIT ( ) );
#78 = CC_DESIGN_APPROVAL ( #42, ( #72 ) ) ;
#79 = CARTESIAN_POINT ( 'NONE',  ( -2.994513952009984779E-31, -0.3499999999999996447, -8.576628832855759562E-17 ) ) ;
#80 = PERSON_AND_ORGANIZATION ( #55, #185 ) ;
#81 = CALENDAR_DATE ( 2021, 8, 11 ) ;
#82 = CALENDAR_DATE ( 2021, 8, 11 ) ;
#83 = AXIS2_PLACEMENT_3D ( 'NONE', #56, #39, #76 ) ;
#84 = CONICAL_SURFACE ( 'NONE', #113, 1.599999999999998312, 0.7853981633974512766 ) ;
#85 = CC_DESIGN_PERSON_AND_ORGANIZATION_ASSIGNMENT ( #96, #195, ( #193 ) ) ;
#86 = PERSON_AND_ORGANIZATION_ROLE ( 'design_supplier' ) ;
#87 = AXIS2_PLACEMENT_3D ( 'NONE', #211, #176, #20 ) ;
#88 = APPROVAL ( #170, 'UNSPECIFIED' ) ;
#89 = ADVANCED_BREP_SHAPE_REPRESENTATION ( '965458', ( #212, #58, #111 ), #206 ) ;
#90 = FACE_OUTER_BOUND ( 'NONE', #66, .T. ) ;
#91 = DIRECTION ( 'NONE',  ( 0.0000000000000000000, 1.000000000000000000, 0.0000000000000000000 ) ) ;
#92 = DIRECTION ( 'NONE',  ( 0.0000000000000000000, -1.000000000000000000, 0.0000000000000000000 ) ) ;
#93 = FACE_OUTER_BOUND ( 'NONE', #17, .T. ) ;
#94 = COORDINATED_UNIVERSAL_TIME_OFFSET ( 1, 0, .AHEAD. ) ;
#95 = MECHANICAL_CONTEXT ( 'NONE', #196, 'mechanical' ) ;
#96 = PERSON_AND_ORGANIZATION ( #55, #185 ) ;
#97 = PRODUCT_DEFINITION ( 'UNKNOWN', '', #72, #24 ) ;
#98 = DATE_TIME_ROLE ( 'classification_date' ) ;
#99 = SECURITY_CLASSIFICATION_LEVEL ( 'unclassified' ) ;
#100 = ORIENTED_EDGE ( 'NONE', *, *, #47, .T. ) ;
#101 = AXIS2_PLACEMENT_3D ( 'NONE', #106, #140, #91 ) ;
#102 = CALENDAR_DATE ( 2021, 8, 11 ) ;
#103 = ADVANCED_FACE ( 'NONE', ( #174 ), #4, .F. ) ;
#104 = EDGE_LOOP ( 'NONE', ( #35 ) ) ;
#105 = SECURITY_CLASSIFICATION ( '', '', #99 ) ;
#106 = CARTESIAN_POINT ( 'NONE',  ( 1.222018468595096801E-13, -4.286263797015736496E-15, 35.00000000000000000 ) ) ;
#107 = DIRECTION ( 'NONE',  ( 3.491481338843133355E-15, -1.225232690407966814E-16, 1.000000000000000000 ) ) ;
#108 = CC_DESIGN_PERSON_AND_ORGANIZATION_ASSIGNMENT ( #150, #183, ( #97 ) ) ;
#109 = UNCERTAINTY_MEASURE_WITH_UNIT (LENGTH_MEASURE( 1.000000000000000082E-05 ), #194, 'distance_accuracy_value', 'NONE');
#110 = DIRECTION ( 'NONE',  ( -3.491481338843133355E-15, 1.224646799147353207E-16, -1.000000000000000000 ) ) ;
#111 = AXIS2_PLACEMENT_3D ( 'NONE', #131, #168, #181 ) ;
#112 = CARTESIAN_POINT ( 'NONE',  ( 5.237222008264698455E-15, -0.3499999999999999223, 1.499999999999999556 ) ) ;
#113 = AXIS2_PLACEMENT_3D ( 'NONE', #158, #209, #143 ) ;
#114 = ADVANCED_FACE ( 'NONE', ( #93 ), #70, .F. ) ;
#115 =( NAMED_UNIT ( * ) PLANE_ANGLE_UNIT ( ) SI_UNIT ( $, .RADIAN. ) );
#116 = COORDINATED_UNIVERSAL_TIME_OFFSET ( 1, 0, .AHEAD. ) ;
#117 = CONICAL_SURFACE ( 'NONE', #73, 1.999999999999996669, 0.5235987755982927094 ) ;
#118 = ORIENTED_EDGE ( 'NONE', *, *, #219, .F. ) ;
#119 = ADVANCED_FACE ( 'NONE', ( #139 ), #122, .F. ) ;
#120 = COORDINATED_UNIVERSAL_TIME_OFFSET ( 1, 0, .AHEAD. ) ;
#121 = APPROVAL_PERSON_ORGANIZATION ( #80, #49, #62 ) ;
#122 = PLANE ( 'NONE',  #171 ) ;
#123 = DIRECTION ( 'NONE',  ( -4.275831445896958607E-31, -1.000000000000000000, -1.224646799147353207E-16 ) ) ;
#124 = ORIENTED_EDGE ( 'NONE', *, *, #221, .T. ) ;
#125 = CC_DESIGN_DATE_AND_TIME_ASSIGNMENT ( #137, #98, ( #105 ) ) ;
#126 = FACE_OUTER_BOUND ( 'NONE', #104, .T. ) ;
#127 = DIRECTION ( 'NONE',  ( -4.275831445896958607E-31, -1.000000000000000000, -1.224646799147353207E-16 ) ) ;
#128 = APPROVAL_STATUS ( 'not_yet_approved' ) ;
#129 = CARTESIAN_POINT ( 'NONE',  ( 5.237222008264698455E-15, -0.3499999999999999223, 1.499999999999999556 ) ) ;
#130 = ORIENTED_EDGE ( 'NONE', *, *, #200, .T. ) ;
#131 = CARTESIAN_POINT ( 'NONE',  ( 0.0000000000000000000, 0.0000000000000000000, 0.0000000000000000000 ) ) ;
#132 = EDGE_CURVE ( 'NONE', #220, #220, #69, .T. ) ;
#133 = DIRECTION ( 'NONE',  ( 3.491481338843133355E-15, -1.225232690407966814E-16, 1.000000000000000000 ) ) ;
#134 = CARTESIAN_POINT ( 'NONE',  ( 1.208052543239724267E-13, 1.999999999999994005, 34.60000000000000853 ) ) ;
#135 = ADVANCED_FACE ( 'NONE', ( #37, #160 ), #117, .T. ) ;
#136 = ADVANCED_FACE ( 'NONE', ( #54, #6 ), #71, .T. ) ;
#137 = DATE_AND_TIME ( #82, #40 ) ;
#138 = AXIS2_PLACEMENT_3D ( 'NONE', #8, #50, #23 ) ;
#139 = FACE_OUTER_BOUND ( 'NONE', #147, .T. ) ;
#140 = DIRECTION ( 'NONE',  ( -3.491481338843133355E-15, 1.224646799147353207E-16, -1.000000000000000000 ) ) ;
#141 = EDGE_LOOP ( 'NONE', ( #124 ) ) ;
#142 = DIRECTION ( 'NONE',  ( -3.491481338843133355E-15, 1.224646799147353207E-16, -1.000000000000000000 ) ) ;
#143 = DIRECTION ( 'NONE',  ( 0.0000000000000000000, 1.000000000000000000, 0.0000000000000000000 ) ) ;
#144 = DATE_TIME_ROLE ( 'creation_date' ) ;
#145 = CARTESIAN_POINT ( 'NONE',  ( 5.237222008264698455E-15, -1.837849035611950714E-16, 1.499999999999999556 ) ) ;
#146 = VERTEX_POINT ( 'NONE', #79 ) ;
#147 = EDGE_LOOP ( 'NONE', ( #14 ) ) ;
#148 = APPROVAL_STATUS ( 'not_yet_approved' ) ;
#149 = ORIENTED_EDGE ( 'NONE', *, *, #221, .F. ) ;
#150 = PERSON_AND_ORGANIZATION ( #55, #185 ) ;
#151 = CIRCLE ( 'NONE', #34, 0.3499999999999997558 ) ;
#152 = CLOSED_SHELL ( 'NONE', ( #136, #61, #114, #135, #103 ) ) ;
#153 = ADVANCED_FACE ( 'NONE', ( #126 ), #191, .T. ) ;
#154 = DATE_AND_TIME ( #32, #67 ) ;
#155 = PERSON_AND_ORGANIZATION ( #55, #185 ) ;
#156 = EDGE_LOOP ( 'NONE', ( #149 ) ) ;
#157 = AXIS2_PLACEMENT_3D ( 'NONE', #165, #133, #59 ) ;
#158 = CARTESIAN_POINT ( 'NONE',  ( 1.222018468595096801E-13, -4.286263797015736496E-15, 35.00000000000000000 ) ) ;
#159 = AXIS2_PLACEMENT_3D ( 'NONE', #187, #51, #123 ) ;
#160 = FACE_OUTER_BOUND ( 'NONE', #156, .T. ) ;
#161 = EDGE_LOOP ( 'NONE', ( #167 ) ) ;
#162 = FACE_OUTER_BOUND ( 'NONE', #215, .T. ) ;
#163 = CALENDAR_DATE ( 2021, 8, 11 ) ;
#164 = APPLICATION_PROTOCOL_DEFINITION ( 'international standard', 'config_control_design', 1994, #216 ) ;
#165 = CARTESIAN_POINT ( 'NONE',  ( 5.237222008264698455E-15, -1.837849035611950714E-16, 1.499999999999999556 ) ) ;
#166 = VERTEX_POINT ( 'NONE', #112 ) ;
#167 = ORIENTED_EDGE ( 'NONE', *, *, #132, .T. ) ;
#168 = DIRECTION ( 'NONE',  ( 0.0000000000000000000, 0.0000000000000000000, 1.000000000000000000 ) ) ;
#169 = COORDINATED_UNIVERSAL_TIME_OFFSET ( 1, 0, .AHEAD. ) ;
#170 = APPROVAL_STATUS ( 'not_yet_approved' ) ;
#171 = AXIS2_PLACEMENT_3D ( 'NONE', #7, #36, #127 ) ;
#172 = APPROVAL_DATE_TIME ( #48, #88 ) ;
#173 = APPROVAL_DATE_TIME ( #154, #42 ) ;
#174 = FACE_OUTER_BOUND ( 'NONE', #213, .T. ) ;
#175 = DIRECTION ( 'NONE',  ( 4.275831445896958607E-31, 1.000000000000000000, 1.224646799147353207E-16 ) ) ;
#176 = DIRECTION ( 'NONE',  ( -3.491481338843133355E-15, 1.224646799147353207E-16, -1.000000000000000000 ) ) ;
#177 = FACE_BOUND ( 'NONE', #38, .T. ) ;
#178 = DIRECTION ( 'NONE',  ( 3.491481338843133355E-15, -1.225232690407966814E-16, 1.000000000000000000 ) ) ;
#179 = CARTESIAN_POINT ( 'NONE',  ( 1.222018468595096801E-13, 1.599999999999994094, 35.00000000000000000 ) ) ;
#180 = CLOSED_SHELL ( 'NONE', ( #153, #184, #119 ) ) ;
#181 = DIRECTION ( 'NONE',  ( 1.000000000000000000, 0.0000000000000000000, 0.0000000000000000000 ) ) ;
#182 = VERTEX_POINT ( 'NONE', #129 ) ;
#183 = PERSON_AND_ORGANIZATION_ROLE ( 'creator' ) ;
#184 = ADVANCED_FACE ( 'NONE', ( #162, #74 ), #214, .T. ) ;
#185 = ORGANIZATION ( 'UNSPECIFIED', 'UNSPECIFIED', '' ) ;
#186 = AXIS2_PLACEMENT_3D ( 'NONE', #12, #199, #217 ) ;
#187 = CARTESIAN_POINT ( 'NONE',  ( 5.237222008264699244E-15, -1.626303258728260102E-16, 1.499999999999999778 ) ) ;
#188 = CARTESIAN_POINT ( 'NONE',  ( 1.222018468595096801E-13, 1.199807826129478286E-32, 35.00000000000000000 ) ) ;
#189 = CC_DESIGN_APPROVAL ( #49, ( #97 ) ) ;
#190 = ORIENTED_EDGE ( 'NONE', *, *, #200, .F. ) ;
#191 = PLANE ( 'NONE',  #138 ) ;
#192 = DIRECTION ( 'NONE',  ( 4.275831445896958607E-31, 1.000000000000000000, 1.224646799147352961E-16 ) ) ;
#193 = PRODUCT ( '965458', '965458', '', ( #95 ) ) ;
#194 =( LENGTH_UNIT ( ) NAMED_UNIT ( * ) SI_UNIT ( .MILLI., .METRE. ) );
#195 = PERSON_AND_ORGANIZATION_ROLE ( 'design_owner' ) ;
#196 = APPLICATION_CONTEXT ( 'configuration controlled 3d designs of mechanical parts and assemblies' ) ;
#197 = CC_DESIGN_SECURITY_CLASSIFICATION ( #105, ( #72 ) ) ;
#198 = CIRCLE ( 'NONE', #157, 0.3499999999999997558 ) ;
#199 = DIRECTION ( 'NONE',  ( 3.491481338843133355E-15, -1.225232690407966814E-16, 1.000000000000000000 ) ) ;
#200 = EDGE_CURVE ( 'NONE', #166, #166, #198, .T. ) ;
#201 = PRODUCT_RELATED_PRODUCT_CATEGORY ( 'detail', '', ( #193 ) ) ;
#202 = SHAPE_DEFINITION_REPRESENTATION ( #60, #89 ) ;
#203 = LOCAL_TIME ( 13, 44, 22.00000000000000000, #94 ) ;
#204 = CC_DESIGN_PERSON_AND_ORGANIZATION_ASSIGNMENT ( #1, #64, ( #105 ) ) ;
#205 = PERSON_AND_ORGANIZATION ( #55, #185 ) ;
#206 =( GEOMETRIC_REPRESENTATION_CONTEXT ( 3 ) GLOBAL_UNCERTAINTY_ASSIGNED_CONTEXT ( ( #109 ) ) GLOBAL_UNIT_ASSIGNED_CONTEXT ( ( #194, #115, #77 ) ) REPRESENTATION_CONTEXT ( 'NONE', 'WORKASPACE' ) );
#207 = EDGE_LOOP ( 'NONE', ( #130 ) ) ;
#208 = CIRCLE ( 'NONE', #31, 0.3499999999999996447 ) ;
#209 = DIRECTION ( 'NONE',  ( -3.491481338843133355E-15, 1.224646799147353207E-16, -1.000000000000000000 ) ) ;
#210 = CC_DESIGN_PERSON_AND_ORGANIZATION_ASSIGNMENT ( #155, #65, ( #72 ) ) ;
#211 = CARTESIAN_POINT ( 'NONE',  ( 1.208052543239724267E-13, -4.237277925049843068E-15, 34.60000000000000853 ) ) ;
#212 = MANIFOLD_SOLID_BREP ( 'Corps-Déplacer/Copier1[1]', #152 ) ;
#213 = EDGE_LOOP ( 'NONE', ( #190 ) ) ;
#214 = CYLINDRICAL_SURFACE ( 'NONE', #83, 0.3499999999999997002 ) ;
#215 = EDGE_LOOP ( 'NONE', ( #9 ) ) ;
#216 = APPLICATION_CONTEXT ( 'configuration controlled 3d designs of mechanical parts and assemblies' ) ;
#217 = DIRECTION ( 'NONE',  ( 0.0000000000000000000, -1.000000000000000000, 0.0000000000000000000 ) ) ;
#218 = DIRECTION ( 'NONE',  ( 0.0000000000000000000, -1.000000000000000000, 0.0000000000000000000 ) ) ;
#219 = EDGE_CURVE ( 'NONE', #182, #182, #151, .T. ) ;
#220 = VERTEX_POINT ( 'NONE', #134 ) ;
#221 = EDGE_CURVE ( 'NONE', #11, #11, #53, .T. ) ;
#222 = APPROVAL_ROLE ( '' ) ;
#223 = APPROVAL_PERSON_ORGANIZATION ( #205, #88, #222 ) ;
ENDSEC;
END-ISO-10303-21;
