ISO-10303-21;
HEADER;
FILE_DESCRIPTION (( 'STEP AP203' ),
    '1' );
FILE_NAME ('965457.step',
    '2021-11-08T12:44:22',
    ( '' ),
    ( '' ),
    'SwSTEP 2.0',
    'SolidWorks 2019',
    '' );
FILE_SCHEMA (( 'CONFIG_CONTROL_DESIGN' ));
ENDSEC;

DATA;
#1 = EDGE_LOOP ( 'NONE', ( #205 ) ) ;
#2 = DIRECTION ( 'NONE',  ( 0.0000000000000000000, 1.000000000000000000, 0.0000000000000000000 ) ) ;
#3 = PRODUCT_DEFINITION ( 'UNKNOWN', '', #193, #31 ) ;
#4 =( NAMED_UNIT ( * ) SI_UNIT ( $, .STERADIAN. ) SOLID_ANGLE_UNIT ( ) );
#5 = ADVANCED_FACE ( 'NONE', ( #100, #39 ), #36, .T. ) ;
#6 = CC_DESIGN_APPROVAL ( #217, ( #21 ) ) ;
#7 = DIRECTION ( 'NONE',  ( -3.491481338843133355E-15, 1.224646799147353207E-16, -1.000000000000000000 ) ) ;
#8 = CC_DESIGN_PERSON_AND_ORGANIZATION_ASSIGNMENT ( #11, #61, ( #193 ) ) ;
#9 = AXIS2_PLACEMENT_3D ( 'NONE', #16, #114, #191 ) ;
#10 = DATE_AND_TIME ( #198, #72 ) ;
#11 = PERSON_AND_ORGANIZATION ( #169, #24 ) ;
#12 = COORDINATED_UNIVERSAL_TIME_OFFSET ( 1, 0, .AHEAD. ) ;
#13 = PERSON_AND_ORGANIZATION_ROLE ( 'creator' ) ;
#14 = ADVANCED_FACE ( 'NONE', ( #64, #37 ), #113, .T. ) ;
#15 = EDGE_LOOP ( 'NONE', ( #168 ) ) ;
#16 = CARTESIAN_POINT ( 'NONE',  ( 1.447039682995523056E-14, -5.077960188987145934E-16, 4.144486372867125290 ) ) ;
#17 = DIRECTION ( 'NONE',  ( 3.491481338843133355E-15, -1.225232690407966814E-16, 1.000000000000000000 ) ) ;
#18 = DIRECTION ( 'NONE',  ( -4.275831445896958607E-31, -1.000000000000000000, -1.224646799147353207E-16 ) ) ;
#19 = CARTESIAN_POINT ( 'NONE',  ( 0.0000000000000000000, 0.0000000000000000000, 0.0000000000000000000 ) ) ;
#20 = ORIENTED_EDGE ( 'NONE', *, *, #216, .F. ) ;
#21 = SECURITY_CLASSIFICATION ( '', '', #201 ) ;
#22 = ORIENTED_EDGE ( 'NONE', *, *, #106, .T. ) ;
#23 = APPROVAL_ROLE ( '' ) ;
#24 = ORGANIZATION ( 'UNSPECIFIED', 'UNSPECIFIED', '' ) ;
#25 = CARTESIAN_POINT ( 'NONE',  ( 1.447039682995523056E-14, -1.999999999999997113, 4.144486372867125290 ) ) ;
#26 = DIRECTION ( 'NONE',  ( -3.491481338843133355E-15, 1.224646799147353207E-16, -1.000000000000000000 ) ) ;
#27 = PERSON_AND_ORGANIZATION ( #169, #24 ) ;
#28 = LOCAL_TIME ( 13, 44, 22.00000000000000000, #105 ) ;
#29 = DATE_AND_TIME ( #47, #137 ) ;
#30 = VERTEX_POINT ( 'NONE', #219 ) ;
#31 = DESIGN_CONTEXT ( 'detailed design', #151, 'design' ) ;
#32 = DIRECTION ( 'NONE',  ( 3.491481338843133355E-15, -1.225232690407966814E-16, 1.000000000000000000 ) ) ;
#33 = AXIS2_PLACEMENT_3D ( 'NONE', #123, #7, #167 ) ;
#34 = APPROVAL_DATE_TIME ( #75, #217 ) ;
#35 = ORIENTED_EDGE ( 'NONE', *, *, #77, .T. ) ;
#36 = CYLINDRICAL_SURFACE ( 'NONE', #175, 0.3000000000000000444 ) ;
#37 = FACE_BOUND ( 'NONE', #130, .T. ) ;
#38 = CARTESIAN_POINT ( 'NONE',  ( 4.189777606611756871E-15, -1.470279228489559979E-16, 1.199999999999999289 ) ) ;
#39 = FACE_OUTER_BOUND ( 'NONE', #79, .T. ) ;
#40 = ADVANCED_FACE ( 'NONE', ( #180 ), #119, .F. ) ;
#41 = APPROVAL ( #135, 'UNSPECIFIED' ) ;
#42 = DIRECTION ( 'NONE',  ( 3.491481338843133355E-15, -1.224646799147353207E-16, 1.000000000000000000 ) ) ;
#43 = CIRCLE ( 'NONE', #164, 0.3000000000000000999 ) ;
#44 = DIRECTION ( 'NONE',  ( -4.275831445896958607E-31, -1.000000000000000000, -1.224646799147353207E-16 ) ) ;
#45 = CARTESIAN_POINT ( 'NONE',  ( 1.222018468595096801E-13, 1.199807826129478286E-32, 35.00000000000000000 ) ) ;
#46 = VERTEX_POINT ( 'NONE', #102 ) ;
#47 = CALENDAR_DATE ( 2021, 8, 11 ) ;
#48 = DATE_AND_TIME ( #196, #140 ) ;
#49 = AXIS2_PLACEMENT_3D ( 'NONE', #179, #42, #44 ) ;
#50 = EDGE_CURVE ( 'NONE', #52, #52, #199, .T. ) ;
#51 = PLANE ( 'NONE',  #189 ) ;
#52 = VERTEX_POINT ( 'NONE', #76 ) ;
#53 = FACE_OUTER_BOUND ( 'NONE', #147, .T. ) ;
#54 = APPROVAL_PERSON_ORGANIZATION ( #197, #217, #166 ) ;
#55 = VERTEX_POINT ( 'NONE', #161 ) ;
#56 = ORIENTED_EDGE ( 'NONE', *, *, #216, .T. ) ;
#57 = DIRECTION ( 'NONE',  ( 0.0000000000000000000, -1.000000000000000000, 0.0000000000000000000 ) ) ;
#58 = AXIS2_PLACEMENT_3D ( 'NONE', #112, #141, #136 ) ;
#59 = CYLINDRICAL_SURFACE ( 'NONE', #33, 1.999999999999996225 ) ;
#60 = APPROVAL_STATUS ( 'not_yet_approved' ) ;
#61 = PERSON_AND_ORGANIZATION_ROLE ( 'creator' ) ;
#62 = AXIS2_PLACEMENT_3D ( 'NONE', #96, #221, #67 ) ;
#63 = ORIENTED_EDGE ( 'NONE', *, *, #86, .F. ) ;
#64 = FACE_OUTER_BOUND ( 'NONE', #202, .T. ) ;
#65 = ADVANCED_FACE ( 'NONE', ( #207 ), #122, .F. ) ;
#66 = FACE_OUTER_BOUND ( 'NONE', #15, .T. ) ;
#67 = DIRECTION ( 'NONE',  ( -4.275831445896958607E-31, -1.000000000000000000, -1.224646799147353207E-16 ) ) ;
#68 = APPLICATION_CONTEXT ( 'configuration controlled 3d designs of mechanical parts and assemblies' ) ;
#69 = AXIS2_PLACEMENT_3D ( 'NONE', #111, #99, #187 ) ;
#70 = EDGE_LOOP ( 'NONE', ( #56 ) ) ;
#71 = FACE_OUTER_BOUND ( 'NONE', #1, .T. ) ;
#72 = LOCAL_TIME ( 13, 44, 22.00000000000000000, #182 ) ;
#73 = APPROVAL_DATE_TIME ( #10, #41 ) ;
#74 = COORDINATED_UNIVERSAL_TIME_OFFSET ( 1, 0, .AHEAD. ) ;
#75 = DATE_AND_TIME ( #78, #28 ) ;
#76 = CARTESIAN_POINT ( 'NONE',  ( 1.222018468595096801E-13, 1.599999999999994094, 35.00000000000000000 ) ) ;
#77 = EDGE_CURVE ( 'NONE', #55, #55, #43, .T. ) ;
#78 = CALENDAR_DATE ( 2021, 8, 11 ) ;
#79 = EDGE_LOOP ( 'NONE', ( #20 ) ) ;
#80 = DIRECTION ( 'NONE',  ( 0.0000000000000000000, -1.000000000000000000, 0.0000000000000000000 ) ) ;
#81 = AXIS2_PLACEMENT_3D ( 'NONE', #101, #178, #89 ) ;
#82 = ADVANCED_FACE ( 'NONE', ( #53 ), #51, .F. ) ;
#83 = DIRECTION ( 'NONE',  ( -4.277877074299977505E-31, -1.000000000000000000, -1.225232690407967800E-16 ) ) ;
#84 = FACE_OUTER_BOUND ( 'NONE', #70, .T. ) ;
#85 = PLANE ( 'NONE',  #62 ) ;
#86 = EDGE_CURVE ( 'NONE', #159, #159, #158, .T. ) ;
#87 = CC_DESIGN_APPROVAL ( #41, ( #3 ) ) ;
#88 = AXIS2_PLACEMENT_3D ( 'NONE', #19, #104, #109 ) ;
#89 = DIRECTION ( 'NONE',  ( 0.0000000000000000000, 1.000000000000000000, 0.0000000000000000000 ) ) ;
#90 = CC_DESIGN_DATE_AND_TIME_ASSIGNMENT ( #91, #181, ( #3 ) ) ;
#91 = DATE_AND_TIME ( #144, #148 ) ;
#92 = PERSON_AND_ORGANIZATION_ROLE ( 'design_supplier' ) ;
#93 = APPROVAL_ROLE ( '' ) ;
#94 =( GEOMETRIC_REPRESENTATION_CONTEXT ( 3 ) GLOBAL_UNCERTAINTY_ASSIGNED_CONTEXT ( ( #107 ) ) GLOBAL_UNIT_ASSIGNED_CONTEXT ( ( #176, #210, #4 ) ) REPRESENTATION_CONTEXT ( 'NONE', 'WORKASPACE' ) );
#95 = ORIENTED_EDGE ( 'NONE', *, *, #50, .T. ) ;
#96 = CARTESIAN_POINT ( 'NONE',  ( 4.189777606611757660E-15, -1.301042606982607539E-16, 1.199999999999999512 ) ) ;
#97 = AXIS2_PLACEMENT_3D ( 'NONE', #131, #153, #2 ) ;
#98 = DIRECTION ( 'NONE',  ( 3.491481338843133355E-15, -1.224646799147353207E-16, 1.000000000000000000 ) ) ;
#99 = DIRECTION ( 'NONE',  ( 3.491481338843133355E-15, -1.225232690407966814E-16, 1.000000000000000000 ) ) ;
#100 = FACE_OUTER_BOUND ( 'NONE', #171, .T. ) ;
#101 = CARTESIAN_POINT ( 'NONE',  ( 1.222018468595096801E-13, -4.286263797015736496E-15, 35.00000000000000000 ) ) ;
#102 = CARTESIAN_POINT ( 'NONE',  ( -2.566726244579989831E-31, -0.2999999999999999334, -7.351396142447802362E-17 ) ) ;
#103 = DATE_TIME_ROLE ( 'classification_date' ) ;
#104 = DIRECTION ( 'NONE',  ( 0.0000000000000000000, 0.0000000000000000000, 1.000000000000000000 ) ) ;
#105 = COORDINATED_UNIVERSAL_TIME_OFFSET ( 1, 0, .AHEAD. ) ;
#106 = EDGE_CURVE ( 'NONE', #46, #46, #223, .T. ) ;
#107 = UNCERTAINTY_MEASURE_WITH_UNIT (LENGTH_MEASURE( 1.000000000000000082E-05 ), #176, 'distance_accuracy_value', 'NONE');
#108 = DIRECTION ( 'NONE',  ( 3.491481338843133355E-15, -1.225232690407966814E-16, 1.000000000000000000 ) ) ;
#109 = DIRECTION ( 'NONE',  ( 1.000000000000000000, 0.0000000000000000000, 0.0000000000000000000 ) ) ;
#110 = CC_DESIGN_APPROVAL ( #200, ( #193 ) ) ;
#111 = CARTESIAN_POINT ( 'NONE',  ( -1.283363122289995791E-31, -6.659086632368398230E-32, -3.675698071223903646E-17 ) ) ;
#112 = CARTESIAN_POINT ( 'NONE',  ( 1.222018468595096801E-13, -4.286263797015736496E-15, 35.00000000000000000 ) ) ;
#113 = CONICAL_SURFACE ( 'NONE', #58, 1.599999999999998312, 0.7853981633974512766 ) ;
#114 = DIRECTION ( 'NONE',  ( 3.491481338843133355E-15, -1.225232690407966814E-16, 1.000000000000000000 ) ) ;
#115 = ADVANCED_FACE ( 'NONE', ( #84 ), #85, .T. ) ;
#116 = DIRECTION ( 'NONE',  ( 0.0000000000000000000, -1.000000000000000000, 0.0000000000000000000 ) ) ;
#117 = CC_DESIGN_PERSON_AND_ORGANIZATION_ASSIGNMENT ( #145, #128, ( #194 ) ) ;
#118 = EDGE_LOOP ( 'NONE', ( #35 ) ) ;
#119 = PLANE ( 'NONE',  #49 ) ;
#120 = CIRCLE ( 'NONE', #97, 1.999999999999998224 ) ;
#121 = CC_DESIGN_DATE_AND_TIME_ASSIGNMENT ( #48, #103, ( #21 ) ) ;
#122 = PLANE ( 'NONE',  #132 ) ;
#123 = CARTESIAN_POINT ( 'NONE',  ( 0.0000000000000000000, 0.0000000000000000000, 0.0000000000000000000 ) ) ;
#124 = COORDINATED_UNIVERSAL_TIME_OFFSET ( 1, 0, .AHEAD. ) ;
#125 = VERTEX_POINT ( 'NONE', #127 ) ;
#126 = PERSON_AND_ORGANIZATION ( #169, #24 ) ;
#127 = CARTESIAN_POINT ( 'NONE',  ( 1.208052543239724267E-13, 1.999999999999994005, 34.60000000000000853 ) ) ;
#128 = PERSON_AND_ORGANIZATION_ROLE ( 'design_owner' ) ;
#129 = FACE_OUTER_BOUND ( 'NONE', #152, .T. ) ;
#130 = EDGE_LOOP ( 'NONE', ( #95 ) ) ;
#131 = CARTESIAN_POINT ( 'NONE',  ( 1.208052543239724267E-13, -4.237277925049843068E-15, 34.60000000000000853 ) ) ;
#132 = AXIS2_PLACEMENT_3D ( 'NONE', #45, #26, #172 ) ;
#133 = CC_DESIGN_PERSON_AND_ORGANIZATION_ASSIGNMENT ( #213, #162, ( #21 ) ) ;
#134 = EDGE_LOOP ( 'NONE', ( #214 ) ) ;
#135 = APPROVAL_STATUS ( 'not_yet_approved' ) ;
#136 = DIRECTION ( 'NONE',  ( 0.0000000000000000000, 1.000000000000000000, 0.0000000000000000000 ) ) ;
#137 = LOCAL_TIME ( 13, 44, 22.00000000000000000, #74 ) ;
#138 = PRODUCT_DEFINITION_SHAPE ( 'NONE', 'NONE',  #3 ) ;
#139 = CC_DESIGN_PERSON_AND_ORGANIZATION_ASSIGNMENT ( #27, #92, ( #193 ) ) ;
#140 = LOCAL_TIME ( 13, 44, 22.00000000000000000, #124 ) ;
#141 = DIRECTION ( 'NONE',  ( -3.491481338843133355E-15, 1.224646799147353207E-16, -1.000000000000000000 ) ) ;
#142 = CC_DESIGN_SECURITY_CLASSIFICATION ( #21, ( #193 ) ) ;
#143 = SHAPE_DEFINITION_REPRESENTATION ( #138, #192 ) ;
#144 = CALENDAR_DATE ( 2021, 8, 11 ) ;
#145 = PERSON_AND_ORGANIZATION ( #169, #24 ) ;
#146 = PERSON_AND_ORGANIZATION ( #169, #24 ) ;
#147 = EDGE_LOOP ( 'NONE', ( #190 ) ) ;
#148 = LOCAL_TIME ( 13, 44, 22.00000000000000000, #12 ) ;
#149 = CLOSED_SHELL ( 'NONE', ( #115, #5, #40 ) ) ;
#150 = ORIENTED_EDGE ( 'NONE', *, *, #50, .F. ) ;
#151 = APPLICATION_CONTEXT ( 'configuration controlled 3d designs of mechanical parts and assemblies' ) ;
#152 = EDGE_LOOP ( 'NONE', ( #63 ) ) ;
#153 = DIRECTION ( 'NONE',  ( -3.491481338843133355E-15, 1.224646799147353207E-16, -1.000000000000000000 ) ) ;
#154 = MANIFOLD_SOLID_BREP ( 'Corps-Déplacer/Copier1[2]', #149 ) ;
#155 = MANIFOLD_SOLID_BREP ( 'Corps-Déplacer/Copier1[1]', #183 ) ;
#156 = CONICAL_SURFACE ( 'NONE', #195, 1.999999999999996669, 0.5235987755982928205 ) ;
#157 = DIRECTION ( 'NONE',  ( 3.491481338843133355E-15, -1.225232690407966814E-16, 1.000000000000000000 ) ) ;
#158 = CIRCLE ( 'NONE', #9, 1.999999999999996669 ) ;
#159 = VERTEX_POINT ( 'NONE', #25 ) ;
#160 = EDGE_CURVE ( 'NONE', #125, #125, #120, .T. ) ;
#161 = CARTESIAN_POINT ( 'NONE',  ( 4.189777606611756871E-15, -0.3000000000000002665, 1.199999999999999289 ) ) ;
#162 = PERSON_AND_ORGANIZATION_ROLE ( 'classification_officer' ) ;
#163 = CARTESIAN_POINT ( 'NONE',  ( 1.447039682995523056E-14, -5.077960188987145934E-16, 4.144486372867125290 ) ) ;
#164 = AXIS2_PLACEMENT_3D ( 'NONE', #38, #157, #116 ) ;
#165 = PERSON_AND_ORGANIZATION ( #169, #24 ) ;
#166 = APPROVAL_ROLE ( '' ) ;
#167 = DIRECTION ( 'NONE',  ( 4.275831445896958607E-31, 1.000000000000000000, 1.224646799147352961E-16 ) ) ;
#168 = ORIENTED_EDGE ( 'NONE', *, *, #86, .T. ) ;
#169 = PERSON ( 'UNSPECIFIED', 'UNSPECIFIED', 'UNSPECIFIED', ('UNSPECIFIED'), ('UNSPECIFIED'), ('UNSPECIFIED') ) ;
#170 = CIRCLE ( 'NONE', #211, 0.3000000000000000999 ) ;
#171 = EDGE_LOOP ( 'NONE', ( #22 ) ) ;
#172 = DIRECTION ( 'NONE',  ( 4.275831445896958607E-31, 1.000000000000000000, 1.224646799147353207E-16 ) ) ;
#173 = ORIENTED_EDGE ( 'NONE', *, *, #160, .F. ) ;
#174 = APPLICATION_PROTOCOL_DEFINITION ( 'international standard', 'config_control_design', 1994, #68 ) ;
#175 = AXIS2_PLACEMENT_3D ( 'NONE', #220, #17, #83 ) ;
#176 =( LENGTH_UNIT ( ) NAMED_UNIT ( * ) SI_UNIT ( .MILLI., .METRE. ) );
#177 = ADVANCED_FACE ( 'NONE', ( #71, #66 ), #59, .T. ) ;
#178 = DIRECTION ( 'NONE',  ( -3.491481338843133355E-15, 1.224646799147353207E-16, -1.000000000000000000 ) ) ;
#179 = CARTESIAN_POINT ( 'NONE',  ( -8.551700045867646674E-31, 2.999532597218505004E-32, -2.449304239644358043E-16 ) ) ;
#180 = FACE_OUTER_BOUND ( 'NONE', #134, .T. ) ;
#181 = DATE_TIME_ROLE ( 'creation_date' ) ;
#182 = COORDINATED_UNIVERSAL_TIME_OFFSET ( 1, 0, .AHEAD. ) ;
#183 = CLOSED_SHELL ( 'NONE', ( #177, #14, #65, #188, #82 ) ) ;
#184 = FACE_BOUND ( 'NONE', #118, .T. ) ;
#185 = APPLICATION_PROTOCOL_DEFINITION ( 'international standard', 'config_control_design', 1994, #151 ) ;
#186 = APPROVAL_STATUS ( 'not_yet_approved' ) ;
#187 = DIRECTION ( 'NONE',  ( -4.277877074299981884E-31, -1.000000000000000000, -1.225232690407966567E-16 ) ) ;
#188 = ADVANCED_FACE ( 'NONE', ( #184, #129 ), #156, .T. ) ;
#189 = AXIS2_PLACEMENT_3D ( 'NONE', #203, #98, #18 ) ;
#190 = ORIENTED_EDGE ( 'NONE', *, *, #77, .F. ) ;
#191 = DIRECTION ( 'NONE',  ( 0.0000000000000000000, -1.000000000000000000, 0.0000000000000000000 ) ) ;
#192 = ADVANCED_BREP_SHAPE_REPRESENTATION ( '965457', ( #155, #154, #88 ), #94 ) ;
#193 = PRODUCT_DEFINITION_FORMATION_WITH_SPECIFIED_SOURCE ( 'ANY', '', #194, .NOT_KNOWN. ) ;
#194 = PRODUCT ( '965457', '965457', '', ( #222 ) ) ;
#195 = AXIS2_PLACEMENT_3D ( 'NONE', #163, #32, #80 ) ;
#196 = CALENDAR_DATE ( 2021, 8, 11 ) ;
#197 = PERSON_AND_ORGANIZATION ( #169, #24 ) ;
#198 = CALENDAR_DATE ( 2021, 8, 11 ) ;
#199 = CIRCLE ( 'NONE', #81, 1.599999999999998312 ) ;
#200 = APPROVAL ( #60, 'UNSPECIFIED' ) ;
#201 = SECURITY_CLASSIFICATION_LEVEL ( 'unclassified' ) ;
#202 = EDGE_LOOP ( 'NONE', ( #173 ) ) ;
#203 = CARTESIAN_POINT ( 'NONE',  ( 4.189777606611757660E-15, -1.301042606982607539E-16, 1.199999999999999512 ) ) ;
#204 = PRODUCT_RELATED_PRODUCT_CATEGORY ( 'detail', '', ( #194 ) ) ;
#205 = ORIENTED_EDGE ( 'NONE', *, *, #160, .T. ) ;
#206 = CC_DESIGN_PERSON_AND_ORGANIZATION_ASSIGNMENT ( #146, #13, ( #3 ) ) ;
#207 = FACE_OUTER_BOUND ( 'NONE', #218, .T. ) ;
#208 = APPROVAL_PERSON_ORGANIZATION ( #126, #200, #93 ) ;
#209 = APPROVAL_DATE_TIME ( #29, #200 ) ;
#210 =( NAMED_UNIT ( * ) PLANE_ANGLE_UNIT ( ) SI_UNIT ( $, .RADIAN. ) );
#211 = AXIS2_PLACEMENT_3D ( 'NONE', #212, #108, #57 ) ;
#212 = CARTESIAN_POINT ( 'NONE',  ( 4.189777606611756871E-15, -1.470279228489559979E-16, 1.199999999999999289 ) ) ;
#213 = PERSON_AND_ORGANIZATION ( #169, #24 ) ;
#214 = ORIENTED_EDGE ( 'NONE', *, *, #106, .F. ) ;
#215 = APPROVAL_PERSON_ORGANIZATION ( #165, #41, #23 ) ;
#216 = EDGE_CURVE ( 'NONE', #30, #30, #170, .T. ) ;
#217 = APPROVAL ( #186, 'UNSPECIFIED' ) ;
#218 = EDGE_LOOP ( 'NONE', ( #150 ) ) ;
#219 = CARTESIAN_POINT ( 'NONE',  ( 4.189777606611756871E-15, -0.3000000000000002665, 1.199999999999999289 ) ) ;
#220 = CARTESIAN_POINT ( 'NONE',  ( -2.025941305359930978E-30, 0.0000000000000000000, -5.802526517387047816E-16 ) ) ;
#221 = DIRECTION ( 'NONE',  ( 3.491481338843133355E-15, -1.224646799147353207E-16, 1.000000000000000000 ) ) ;
#222 = MECHANICAL_CONTEXT ( 'NONE', #68, 'mechanical' ) ;
#223 = CIRCLE ( 'NONE', #69, 0.2999999999999999334 ) ;
ENDSEC;
END-ISO-10303-21;
