ISO-10303-21;
HEADER;
FILE_DESCRIPTION (( 'STEP AP203' ),
    '1' );
FILE_NAME ('965456.step',
    '2021-11-08T12:44:21',
    ( '' ),
    ( '' ),
    'SwSTEP 2.0',
    'SolidWorks 2019',
    '' );
FILE_SCHEMA (( 'CONFIG_CONTROL_DESIGN' ));
ENDSEC;

DATA;
#1 = APPROVAL_PERSON_ORGANIZATION ( #192, #167, #53 ) ;
#2 = DATE_TIME_ROLE ( 'creation_date' ) ;
#3 = ADVANCED_FACE ( 'NONE', ( #197 ), #199, .F. ) ;
#4 = CC_DESIGN_APPROVAL ( #194, ( #175 ) ) ;
#5 = PERSON_AND_ORGANIZATION_ROLE ( 'creator' ) ;
#6 = DIRECTION ( 'NONE',  ( -3.491481338843133355E-15, 1.224646799147353207E-16, -1.000000000000000000 ) ) ;
#7 = SECURITY_CLASSIFICATION_LEVEL ( 'unclassified' ) ;
#8 = DIRECTION ( 'NONE',  ( -3.491481338843133355E-15, 1.224646799147353207E-16, -1.000000000000000000 ) ) ;
#9 = DIRECTION ( 'NONE',  ( 0.0000000000000000000, -1.000000000000000000, 0.0000000000000000000 ) ) ;
#10 = SECURITY_CLASSIFICATION ( '', '', #7 ) ;
#11 = EDGE_LOOP ( 'NONE', ( #40 ) ) ;
#12 = CARTESIAN_POINT ( 'NONE',  ( 1.407447171581436063E-14, -1.999999999999997113, 4.031088913245571170 ) ) ;
#13 = DIRECTION ( 'NONE',  ( -3.491481338843133355E-15, 1.224646799147353207E-16, -1.000000000000000000 ) ) ;
#14 = CLOSED_SHELL ( 'NONE', ( #16, #62, #98 ) ) ;
#15 = DIRECTION ( 'NONE',  ( 3.491481338843133355E-15, -1.225232690407966814E-16, 1.000000000000000000 ) ) ;
#16 = ADVANCED_FACE ( 'NONE', ( #37 ), #128, .T. ) ;
#17 = DATE_AND_TIME ( #120, #107 ) ;
#18 = CC_DESIGN_APPROVAL ( #167, ( #10 ) ) ;
#19 = EDGE_CURVE ( 'NONE', #223, #223, #137, .T. ) ;
#20 = CC_DESIGN_PERSON_AND_ORGANIZATION_ASSIGNMENT ( #33, #84, ( #10 ) ) ;
#21 = FACE_OUTER_BOUND ( 'NONE', #72, .T. ) ;
#22 = COORDINATED_UNIVERSAL_TIME_OFFSET ( 1, 0, .AHEAD. ) ;
#23 = AXIS2_PLACEMENT_3D ( 'NONE', #47, #69, #206 ) ;
#24 = PRODUCT_DEFINITION_SHAPE ( 'NONE', 'NONE',  #185 ) ;
#25 = CARTESIAN_POINT ( 'NONE',  ( 1.208052543239724267E-13, -4.237277925049843068E-15, 34.60000000000000853 ) ) ;
#26 = CARTESIAN_POINT ( 'NONE',  ( -2.025941305359930978E-30, 0.0000000000000000000, -5.802526517387047816E-16 ) ) ;
#27 = ORIENTED_EDGE ( 'NONE', *, *, #117, .T. ) ;
#28 = ORIENTED_EDGE ( 'NONE', *, *, #49, .F. ) ;
#29 = APPROVAL_STATUS ( 'not_yet_approved' ) ;
#30 = CARTESIAN_POINT ( 'NONE',  ( 0.0000000000000000000, 0.0000000000000000000, 0.0000000000000000000 ) ) ;
#31 = DIRECTION ( 'NONE',  ( 0.0000000000000000000, -1.000000000000000000, 0.0000000000000000000 ) ) ;
#32 = APPLICATION_PROTOCOL_DEFINITION ( 'international standard', 'config_control_design', 1994, #141 ) ;
#33 = PERSON_AND_ORGANIZATION ( #66, #68 ) ;
#34 = ADVANCED_FACE ( 'NONE', ( #21, #182 ), #106, .T. ) ;
#35 = SHAPE_DEFINITION_REPRESENTATION ( #24, #170 ) ;
#36 = CARTESIAN_POINT ( 'NONE',  ( 3.491481338843132566E-15, -1.084202172485506653E-16, 0.9999999999999997780 ) ) ;
#37 = FACE_OUTER_BOUND ( 'NONE', #147, .T. ) ;
#38 = DATE_AND_TIME ( #121, #102 ) ;
#39 = CARTESIAN_POINT ( 'NONE',  ( 1.222018468595096801E-13, 1.199807826129478286E-32, 35.00000000000000000 ) ) ;
#40 = ORIENTED_EDGE ( 'NONE', *, *, #19, .F. ) ;
#41 = DIRECTION ( 'NONE',  ( -4.275831445896958607E-31, -1.000000000000000000, -1.224646799147353207E-16 ) ) ;
#42 = CONICAL_SURFACE ( 'NONE', #126, 1.599999999999998312, 0.7853981633974512766 ) ;
#43 = VERTEX_POINT ( 'NONE', #220 ) ;
#44 = CC_DESIGN_PERSON_AND_ORGANIZATION_ASSIGNMENT ( #88, #160, ( #175 ) ) ;
#45 = CARTESIAN_POINT ( 'NONE',  ( 1.222018468595096801E-13, -4.286263797015736496E-15, 35.00000000000000000 ) ) ;
#46 = CARTESIAN_POINT ( 'NONE',  ( 3.491481338843131778E-15, -1.225232690407967060E-16, 0.9999999999999995559 ) ) ;
#47 = CARTESIAN_POINT ( 'NONE',  ( 3.491481338843132566E-15, -1.084202172485506653E-16, 0.9999999999999997780 ) ) ;
#48 = DESIGN_CONTEXT ( 'detailed design', #161, 'design' ) ;
#49 = EDGE_CURVE ( 'NONE', #43, #43, #205, .T. ) ;
#50 = AXIS2_PLACEMENT_3D ( 'NONE', #116, #13, #65 ) ;
#51 = DATE_AND_TIME ( #195, #95 ) ;
#52 = EDGE_LOOP ( 'NONE', ( #28 ) ) ;
#53 = APPROVAL_ROLE ( '' ) ;
#54 = PRODUCT ( '965456', '965456', '', ( #169 ) ) ;
#55 = ORIENTED_EDGE ( 'NONE', *, *, #92, .F. ) ;
#56 = CYLINDRICAL_SURFACE ( 'NONE', #114, 0.2499999999999996392 ) ;
#57 = AXIS2_PLACEMENT_3D ( 'NONE', #39, #6, #91 ) ;
#58 =( GEOMETRIC_REPRESENTATION_CONTEXT ( 3 ) GLOBAL_UNCERTAINTY_ASSIGNED_CONTEXT ( ( #82 ) ) GLOBAL_UNIT_ASSIGNED_CONTEXT ( ( #153, #94, #96 ) ) REPRESENTATION_CONTEXT ( 'NONE', 'WORKASPACE' ) );
#59 = DIRECTION ( 'NONE',  ( 0.0000000000000000000, -1.000000000000000000, 0.0000000000000000000 ) ) ;
#60 = EDGE_LOOP ( 'NONE', ( #162 ) ) ;
#61 = DIRECTION ( 'NONE',  ( 0.0000000000000000000, 1.000000000000000000, 0.0000000000000000000 ) ) ;
#62 = ADVANCED_FACE ( 'NONE', ( #180, #144 ), #56, .T. ) ;
#63 = CC_DESIGN_PERSON_AND_ORGANIZATION_ASSIGNMENT ( #124, #5, ( #175 ) ) ;
#64 = FACE_OUTER_BOUND ( 'NONE', #52, .T. ) ;
#65 = DIRECTION ( 'NONE',  ( 0.0000000000000000000, 1.000000000000000000, 0.0000000000000000000 ) ) ;
#66 = PERSON ( 'UNSPECIFIED', 'UNSPECIFIED', 'UNSPECIFIED', ('UNSPECIFIED'), ('UNSPECIFIED'), ('UNSPECIFIED') ) ;
#67 = PERSON_AND_ORGANIZATION_ROLE ( 'design_owner' ) ;
#68 = ORGANIZATION ( 'UNSPECIFIED', 'UNSPECIFIED', '' ) ;
#69 = DIRECTION ( 'NONE',  ( 3.491481338843133355E-15, -1.224646799147353207E-16, 1.000000000000000000 ) ) ;
#70 = APPROVAL_ROLE ( '' ) ;
#71 = CLOSED_SHELL ( 'NONE', ( #34, #157, #3, #135, #184 ) ) ;
#72 = EDGE_LOOP ( 'NONE', ( #164 ) ) ;
#73 = DATE_AND_TIME ( #174, #150 ) ;
#74 = DIRECTION ( 'NONE',  ( 0.0000000000000000000, 1.000000000000000000, 0.0000000000000000000 ) ) ;
#75 = APPROVAL_PERSON_ORGANIZATION ( #219, #140, #115 ) ;
#76 = ORIENTED_EDGE ( 'NONE', *, *, #176, .T. ) ;
#77 = EDGE_CURVE ( 'NONE', #113, #113, #154, .T. ) ;
#78 = VERTEX_POINT ( 'NONE', #204 ) ;
#79 = PLANE ( 'NONE',  #23 ) ;
#80 = CONICAL_SURFACE ( 'NONE', #221, 1.999999999999996669, 0.5235987755982929315 ) ;
#81 = FACE_OUTER_BOUND ( 'NONE', #142, .T. ) ;
#82 = UNCERTAINTY_MEASURE_WITH_UNIT (LENGTH_MEASURE( 1.000000000000000082E-05 ), #153, 'distance_accuracy_value', 'NONE');
#83 = APPROVAL_DATE_TIME ( #51, #140 ) ;
#84 = PERSON_AND_ORGANIZATION_ROLE ( 'classification_officer' ) ;
#85 = CC_DESIGN_PERSON_AND_ORGANIZATION_ASSIGNMENT ( #156, #155, ( #185 ) ) ;
#86 = CC_DESIGN_APPROVAL ( #140, ( #185 ) ) ;
#87 = CARTESIAN_POINT ( 'NONE',  ( 0.0000000000000000000, 0.0000000000000000000, 0.0000000000000000000 ) ) ;
#88 = PERSON_AND_ORGANIZATION ( #66, #68 ) ;
#89 = EDGE_LOOP ( 'NONE', ( #159 ) ) ;
#90 = EDGE_LOOP ( 'NONE', ( #139 ) ) ;
#91 = DIRECTION ( 'NONE',  ( 4.275831445896958607E-31, 1.000000000000000000, 1.224646799147353207E-16 ) ) ;
#92 = EDGE_CURVE ( 'NONE', #134, #134, #119, .T. ) ;
#93 = DIRECTION ( 'NONE',  ( 3.491481338843133355E-15, -1.225232690407966814E-16, 1.000000000000000000 ) ) ;
#94 =( NAMED_UNIT ( * ) PLANE_ANGLE_UNIT ( ) SI_UNIT ( $, .RADIAN. ) );
#95 = LOCAL_TIME ( 13, 44, 21.00000000000000000, #196 ) ;
#96 =( NAMED_UNIT ( * ) SI_UNIT ( $, .STERADIAN. ) SOLID_ANGLE_UNIT ( ) );
#97 = DIRECTION ( 'NONE',  ( 0.0000000000000000000, 0.0000000000000000000, 1.000000000000000000 ) ) ;
#98 = ADVANCED_FACE ( 'NONE', ( #127 ), #202, .F. ) ;
#99 = CC_DESIGN_DATE_AND_TIME_ASSIGNMENT ( #136, #2, ( #185 ) ) ;
#100 = AXIS2_PLACEMENT_3D ( 'NONE', #145, #217, #59 ) ;
#101 = COORDINATED_UNIVERSAL_TIME_OFFSET ( 1, 0, .AHEAD. ) ;
#102 = LOCAL_TIME ( 13, 44, 21.00000000000000000, #214 ) ;
#103 = CARTESIAN_POINT ( 'NONE',  ( -1.069469268574995471E-31, -6.734146389650616661E-32, -3.063081726019916418E-17 ) ) ;
#104 = DATE_TIME_ROLE ( 'classification_date' ) ;
#105 = PRODUCT_RELATED_PRODUCT_CATEGORY ( 'detail', '', ( #54 ) ) ;
#106 = CYLINDRICAL_SURFACE ( 'NONE', #210, 1.999999999999996225 ) ;
#107 = LOCAL_TIME ( 13, 44, 21.00000000000000000, #200 ) ;
#108 = MANIFOLD_SOLID_BREP ( 'Corps-Déplacer/Copier1[1]', #71 ) ;
#109 = CARTESIAN_POINT ( 'NONE',  ( 1.407447171581436063E-14, -4.939021914449599704E-16, 4.031088913245571170 ) ) ;
#110 = CARTESIAN_POINT ( 'NONE',  ( -8.551700045867646674E-31, 2.999532597218505004E-32, -2.449304239644358043E-16 ) ) ;
#111 = DIRECTION ( 'NONE',  ( -3.491481338843133355E-15, 1.224646799147353207E-16, -1.000000000000000000 ) ) ;
#112 = CIRCLE ( 'NONE', #193, 0.2499999999999994726 ) ;
#113 = VERTEX_POINT ( 'NONE', #12 ) ;
#114 = AXIS2_PLACEMENT_3D ( 'NONE', #26, #125, #201 ) ;
#115 = APPROVAL_ROLE ( '' ) ;
#116 = CARTESIAN_POINT ( 'NONE',  ( 1.222018468595096801E-13, -4.286263797015736496E-15, 35.00000000000000000 ) ) ;
#117 = EDGE_CURVE ( 'NONE', #132, #132, #112, .T. ) ;
#118 = APPROVAL_STATUS ( 'not_yet_approved' ) ;
#119 = CIRCLE ( 'NONE', #100, 0.2499999999999994726 ) ;
#120 = CALENDAR_DATE ( 2021, 8, 11 ) ;
#121 = CALENDAR_DATE ( 2021, 8, 11 ) ;
#122 = EDGE_LOOP ( 'NONE', ( #55 ) ) ;
#123 = EDGE_LOOP ( 'NONE', ( #218 ) ) ;
#124 = PERSON_AND_ORGANIZATION ( #66, #68 ) ;
#125 = DIRECTION ( 'NONE',  ( 3.491481338843133355E-15, -1.225232690407966814E-16, 1.000000000000000000 ) ) ;
#126 = AXIS2_PLACEMENT_3D ( 'NONE', #45, #186, #61 ) ;
#127 = FACE_OUTER_BOUND ( 'NONE', #11, .T. ) ;
#128 = PLANE ( 'NONE',  #130 ) ;
#129 = FACE_OUTER_BOUND ( 'NONE', #122, .T. ) ;
#130 = AXIS2_PLACEMENT_3D ( 'NONE', #36, #203, #41 ) ;
#131 = CARTESIAN_POINT ( 'NONE',  ( 3.491481338843131778E-15, -0.2499999999999995837, 0.9999999999999995559 ) ) ;
#132 = VERTEX_POINT ( 'NONE', #131 ) ;
#133 = APPLICATION_PROTOCOL_DEFINITION ( 'international standard', 'config_control_design', 1994, #161 ) ;
#134 = VERTEX_POINT ( 'NONE', #188 ) ;
#135 = ADVANCED_FACE ( 'NONE', ( #168, #81 ), #80, .T. ) ;
#136 = DATE_AND_TIME ( #172, #183 ) ;
#137 = CIRCLE ( 'NONE', #146, 0.2499999999999997780 ) ;
#138 = CC_DESIGN_PERSON_AND_ORGANIZATION_ASSIGNMENT ( #152, #67, ( #54 ) ) ;
#139 = ORIENTED_EDGE ( 'NONE', *, *, #19, .T. ) ;
#140 = APPROVAL ( #29, 'UNSPECIFIED' ) ;
#141 = APPLICATION_CONTEXT ( 'configuration controlled 3d designs of mechanical parts and assemblies' ) ;
#142 = EDGE_LOOP ( 'NONE', ( #215 ) ) ;
#143 = APPROVAL_STATUS ( 'not_yet_approved' ) ;
#144 = FACE_OUTER_BOUND ( 'NONE', #213, .T. ) ;
#145 = CARTESIAN_POINT ( 'NONE',  ( 3.491481338843131778E-15, -1.225232690407967060E-16, 0.9999999999999995559 ) ) ;
#146 = AXIS2_PLACEMENT_3D ( 'NONE', #103, #93, #177 ) ;
#147 = EDGE_LOOP ( 'NONE', ( #27 ) ) ;
#148 = DIRECTION ( 'NONE',  ( 1.000000000000000000, 0.0000000000000000000, 0.0000000000000000000 ) ) ;
#149 = DIRECTION ( 'NONE',  ( 3.491481338843133355E-15, -1.225232690407966814E-16, 1.000000000000000000 ) ) ;
#150 = LOCAL_TIME ( 13, 44, 21.00000000000000000, #101 ) ;
#151 = DIRECTION ( 'NONE',  ( -4.275831445896958607E-31, -1.000000000000000000, -1.224646799147353207E-16 ) ) ;
#152 = PERSON_AND_ORGANIZATION ( #66, #68 ) ;
#153 =( LENGTH_UNIT ( ) NAMED_UNIT ( * ) SI_UNIT ( .MILLI., .METRE. ) );
#154 = CIRCLE ( 'NONE', #190, 1.999999999999996669 ) ;
#155 = PERSON_AND_ORGANIZATION_ROLE ( 'creator' ) ;
#156 = PERSON_AND_ORGANIZATION ( #66, #68 ) ;
#157 = ADVANCED_FACE ( 'NONE', ( #64, #222 ), #42, .T. ) ;
#158 = APPROVAL_PERSON_ORGANIZATION ( #198, #194, #70 ) ;
#159 = ORIENTED_EDGE ( 'NONE', *, *, #176, .F. ) ;
#160 = PERSON_AND_ORGANIZATION_ROLE ( 'design_supplier' ) ;
#161 = APPLICATION_CONTEXT ( 'configuration controlled 3d designs of mechanical parts and assemblies' ) ;
#162 = ORIENTED_EDGE ( 'NONE', *, *, #77, .T. ) ;
#163 = DIRECTION ( 'NONE',  ( 3.491481338843133355E-15, -1.225232690407966814E-16, 1.000000000000000000 ) ) ;
#164 = ORIENTED_EDGE ( 'NONE', *, *, #49, .T. ) ;
#165 = AXIS2_PLACEMENT_3D ( 'NONE', #30, #97, #148 ) ;
#166 = ORIENTED_EDGE ( 'NONE', *, *, #117, .F. ) ;
#167 = APPROVAL ( #118, 'UNSPECIFIED' ) ;
#168 = FACE_BOUND ( 'NONE', #123, .T. ) ;
#169 = MECHANICAL_CONTEXT ( 'NONE', #141, 'mechanical' ) ;
#170 = ADVANCED_BREP_SHAPE_REPRESENTATION ( '965456', ( #108, #187, #165 ), #58 ) ;
#171 = CARTESIAN_POINT ( 'NONE',  ( 1.407447171581436063E-14, -4.939021914449599704E-16, 4.031088913245571170 ) ) ;
#172 = CALENDAR_DATE ( 2021, 8, 11 ) ;
#173 = CC_DESIGN_SECURITY_CLASSIFICATION ( #10, ( #175 ) ) ;
#174 = CALENDAR_DATE ( 2021, 8, 11 ) ;
#175 = PRODUCT_DEFINITION_FORMATION_WITH_SPECIFIED_SOURCE ( 'ANY', '', #54, .NOT_KNOWN. ) ;
#176 = EDGE_CURVE ( 'NONE', #78, #78, #216, .T. ) ;
#177 = DIRECTION ( 'NONE',  ( -4.277877074299981884E-31, -1.000000000000000000, -1.225232690407966567E-16 ) ) ;
#178 = AXIS2_PLACEMENT_3D ( 'NONE', #110, #181, #151 ) ;
#179 = DIRECTION ( 'NONE',  ( 4.275831445896958607E-31, 1.000000000000000000, 1.224646799147352961E-16 ) ) ;
#180 = FACE_OUTER_BOUND ( 'NONE', #90, .T. ) ;
#181 = DIRECTION ( 'NONE',  ( 3.491481338843133355E-15, -1.224646799147353207E-16, 1.000000000000000000 ) ) ;
#182 = FACE_OUTER_BOUND ( 'NONE', #60, .T. ) ;
#183 = LOCAL_TIME ( 13, 44, 21.00000000000000000, #22 ) ;
#184 = ADVANCED_FACE ( 'NONE', ( #129 ), #79, .F. ) ;
#185 = PRODUCT_DEFINITION ( 'UNKNOWN', '', #175, #48 ) ;
#186 = DIRECTION ( 'NONE',  ( -3.491481338843133355E-15, 1.224646799147353207E-16, -1.000000000000000000 ) ) ;
#187 = MANIFOLD_SOLID_BREP ( 'Corps-Déplacer/Copier1[2]', #14 ) ;
#188 = CARTESIAN_POINT ( 'NONE',  ( 3.491481338843131778E-15, -0.2499999999999995837, 0.9999999999999995559 ) ) ;
#189 = AXIS2_PLACEMENT_3D ( 'NONE', #25, #8, #74 ) ;
#190 = AXIS2_PLACEMENT_3D ( 'NONE', #109, #163, #9 ) ;
#191 = CARTESIAN_POINT ( 'NONE',  ( -2.138938537149990066E-31, -0.2499999999999997780, -6.126163452039830372E-17 ) ) ;
#192 = PERSON_AND_ORGANIZATION ( #66, #68 ) ;
#193 = AXIS2_PLACEMENT_3D ( 'NONE', #46, #149, #31 ) ;
#194 = APPROVAL ( #143, 'UNSPECIFIED' ) ;
#195 = CALENDAR_DATE ( 2021, 8, 11 ) ;
#196 = COORDINATED_UNIVERSAL_TIME_OFFSET ( 1, 0, .AHEAD. ) ;
#197 = FACE_OUTER_BOUND ( 'NONE', #89, .T. ) ;
#198 = PERSON_AND_ORGANIZATION ( #66, #68 ) ;
#199 = PLANE ( 'NONE',  #57 ) ;
#200 = COORDINATED_UNIVERSAL_TIME_OFFSET ( 1, 0, .AHEAD. ) ;
#201 = DIRECTION ( 'NONE',  ( -4.277877074299976629E-31, -1.000000000000000000, -1.225232690407968293E-16 ) ) ;
#202 = PLANE ( 'NONE',  #178 ) ;
#203 = DIRECTION ( 'NONE',  ( 3.491481338843133355E-15, -1.224646799147353207E-16, 1.000000000000000000 ) ) ;
#204 = CARTESIAN_POINT ( 'NONE',  ( 1.222018468595096801E-13, 1.599999999999994094, 35.00000000000000000 ) ) ;
#205 = CIRCLE ( 'NONE', #189, 1.999999999999998224 ) ;
#206 = DIRECTION ( 'NONE',  ( -4.275831445896958607E-31, -1.000000000000000000, -1.224646799147353207E-16 ) ) ;
#207 = DIRECTION ( 'NONE',  ( 0.0000000000000000000, -1.000000000000000000, 0.0000000000000000000 ) ) ;
#208 = APPROVAL_DATE_TIME ( #73, #167 ) ;
#209 = CC_DESIGN_DATE_AND_TIME_ASSIGNMENT ( #17, #104, ( #10 ) ) ;
#210 = AXIS2_PLACEMENT_3D ( 'NONE', #87, #111, #179 ) ;
#211 = APPROVAL_DATE_TIME ( #38, #194 ) ;
#212 = EDGE_LOOP ( 'NONE', ( #76 ) ) ;
#213 = EDGE_LOOP ( 'NONE', ( #166 ) ) ;
#214 = COORDINATED_UNIVERSAL_TIME_OFFSET ( 1, 0, .AHEAD. ) ;
#215 = ORIENTED_EDGE ( 'NONE', *, *, #77, .F. ) ;
#216 = CIRCLE ( 'NONE', #50, 1.599999999999998312 ) ;
#217 = DIRECTION ( 'NONE',  ( 3.491481338843133355E-15, -1.225232690407966814E-16, 1.000000000000000000 ) ) ;
#218 = ORIENTED_EDGE ( 'NONE', *, *, #92, .T. ) ;
#219 = PERSON_AND_ORGANIZATION ( #66, #68 ) ;
#220 = CARTESIAN_POINT ( 'NONE',  ( 1.208052543239724267E-13, 1.999999999999994005, 34.60000000000000853 ) ) ;
#221 = AXIS2_PLACEMENT_3D ( 'NONE', #171, #15, #207 ) ;
#222 = FACE_BOUND ( 'NONE', #212, .T. ) ;
#223 = VERTEX_POINT ( 'NONE', #191 ) ;
ENDSEC;
END-ISO-10303-21;
