ISO-10303-21;
HEADER;
FILE_DESCRIPTION (( 'STEP AP203' ),
    '1' );
FILE_NAME ('965451.step',
    '2021-11-30T08:32:51',
    ( '' ),
    ( '' ),
    'SwSTEP 2.0',
    'SolidWorks 2019',
    '' );
FILE_SCHEMA (( 'CONFIG_CONTROL_DESIGN' ));
ENDSEC;

DATA;
#1 = CARTESIAN_POINT ( 'NONE',  ( 1.745740669421566678E-13, -6.123233995736766085E-15, 50.00000000000000000 ) ) ;
#2 = CC_DESIGN_PERSON_AND_ORGANIZATION_ASSIGNMENT ( #208, #189, ( #190 ) ) ;
#3 = AXIS2_PLACEMENT_3D ( 'NONE', #102, #9, #198 ) ;
#4 = APPROVAL_PERSON_ORGANIZATION ( #172, #124, #95 ) ;
#5 = FACE_OUTER_BOUND ( 'NONE', #127, .T. ) ;
#6 = CYLINDRICAL_SURFACE ( 'NONE', #218, 1.499999999999999112 ) ;
#7 = FACE_OUTER_BOUND ( 'NONE', #11, .T. ) ;
#8 = ORIENTED_EDGE ( 'NONE', *, *, #298, .T. ) ;
#9 = DIRECTION ( 'NONE',  ( -3.491481338843133355E-15, 1.224646799147353207E-16, -1.000000000000000000 ) ) ;
#10 = FACE_OUTER_BOUND ( 'NONE', #184, .T. ) ;
#11 = EDGE_LOOP ( 'NONE', ( #105 ) ) ;
#12 = ADVANCED_FACE ( 'NONE', ( #10, #225 ), #6, .T. ) ;
#13 = CARTESIAN_POINT ( 'NONE',  ( 5.586370142149013368E-14, -1.959434878635765131E-15, 16.00000000000000000 ) ) ;
#14 = AXIS2_PLACEMENT_3D ( 'NONE', #136, #236, #231 ) ;
#15 = ORIENTED_EDGE ( 'NONE', *, *, #98, .T. ) ;
#16 =( NAMED_UNIT ( * ) PLANE_ANGLE_UNIT ( ) SI_UNIT ( $, .RADIAN. ) );
#17 = ADVANCED_FACE ( 'NONE', ( #284, #168 ), #65, .T. ) ;
#18 = CIRCLE ( 'NONE', #204, 0.7350000000000013189 ) ;
#19 = DIRECTION ( 'NONE',  ( -3.491481338843133355E-15, 1.224646799147353207E-16, -1.000000000000000000 ) ) ;
#20 = DIRECTION ( 'NONE',  ( -3.491481338843133355E-15, 1.224646799147353207E-16, -1.000000000000000000 ) ) ;
#21 = EDGE_CURVE ( 'NONE', #248, #248, #54, .T. ) ;
#22 = ORIENTED_EDGE ( 'NONE', *, *, #90, .T. ) ;
#23 = PERSON_AND_ORGANIZATION_ROLE ( 'creator' ) ;
#24 = AXIS2_PLACEMENT_3D ( 'NONE', #1, #267, #38 ) ;
#25 = CC_DESIGN_APPROVAL ( #70, ( #152 ) ) ;
#26 = DATE_AND_TIME ( #296, #214 ) ;
#27 = CARTESIAN_POINT ( 'NONE',  ( 0.0000000000000000000, 0.0000000000000000000, 0.0000000000000000000 ) ) ;
#28 = AXIS2_PLACEMENT_3D ( 'NONE', #13, #203, #209 ) ;
#29 = AXIS2_PLACEMENT_3D ( 'NONE', #43, #20, #42 ) ;
#30 = ADVANCED_FACE ( 'NONE', ( #262 ), #282, .F. ) ;
#31 = DIRECTION ( 'NONE',  ( -3.491481338843133355E-15, 1.224646799147353207E-16, -1.000000000000000000 ) ) ;
#32 = ORIENTED_EDGE ( 'NONE', *, *, #112, .T. ) ;
#33 = TOROIDAL_SURFACE ( 'NONE', #29, 2.735000000000000320, 2.000000000000000000 ) ;
#34 = DIRECTION ( 'NONE',  ( 3.491481338843133355E-15, -1.224646799147353207E-16, 1.000000000000000000 ) ) ;
#35 = EDGE_CURVE ( 'NONE', #73, #73, #79, .T. ) ;
#36 = EDGE_LOOP ( 'NONE', ( #199 ) ) ;
#37 = DIRECTION ( 'NONE',  ( -4.275831445896958607E-31, -1.000000000000000000, -1.224646799147353207E-16 ) ) ;
#38 = DIRECTION ( 'NONE',  ( 0.0000000000000000000, 1.000000000000000000, 0.0000000000000000000 ) ) ;
#39 = FACE_BOUND ( 'NONE', #94, .T. ) ;
#40 = CARTESIAN_POINT ( 'NONE',  ( 5.707628016518647231E-14, -2.001966415627278450E-15, 16.34729635533384240 ) ) ;
#41 = DIRECTION ( 'NONE',  ( 0.0000000000000000000, 1.000000000000000000, 0.0000000000000000000 ) ) ;
#42 = DIRECTION ( 'NONE',  ( 4.275831445896958607E-31, 1.000000000000000000, 1.224646799147353207E-16 ) ) ;
#43 = CARTESIAN_POINT ( 'NONE',  ( 5.586370142149013368E-14, -2.168404344971008868E-15, 16.00000000000000000 ) ) ;
#44 = CLOSED_SHELL ( 'NONE', ( #174, #118, #57, #278, #131, #12, #207, #30 ) ) ;
#45 = CIRCLE ( 'NONE', #156, 0.7653844939755811705 ) ;
#46 = CARTESIAN_POINT ( 'NONE',  ( 0.0000000000000000000, 0.6941624327025948116, 0.0000000000000000000 ) ) ;
#47 = COORDINATED_UNIVERSAL_TIME_OFFSET ( 1, 0, .AHEAD. ) ;
#48 = PRODUCT_RELATED_PRODUCT_CATEGORY ( 'detail', '', ( #190 ) ) ;
#49 = COORDINATED_UNIVERSAL_TIME_OFFSET ( 1, 0, .AHEAD. ) ;
#50 = PERSON_AND_ORGANIZATION ( #86, #134 ) ;
#51 = DIRECTION ( 'NONE',  ( 0.0000000000000000000, -1.000000000000000000, 0.0000000000000000000 ) ) ;
#52 = DIRECTION ( 'NONE',  ( 3.491481338843133355E-15, -1.224646799147353207E-16, 1.000000000000000000 ) ) ;
#53 = APPROVAL_ROLE ( '' ) ;
#54 = CIRCLE ( 'NONE', #28, 0.7350000000000002087 ) ;
#55 = CARTESIAN_POINT ( 'NONE',  ( 2.444036937190193349E-14, 6.287742888809824528E-33, 7.000000000000000000 ) ) ;
#56 = CC_DESIGN_SECURITY_CLASSIFICATION ( #141, ( #273 ) ) ;
#57 = ADVANCED_FACE ( 'NONE', ( #182, #126 ), #179, .T. ) ;
#58 = FACE_OUTER_BOUND ( 'NONE', #163, .T. ) ;
#59 = EDGE_LOOP ( 'NONE', ( #15 ) ) ;
#60 = EDGE_LOOP ( 'NONE', ( #125 ) ) ;
#61 = DIRECTION ( 'NONE',  ( 0.0000000000000000000, 1.000000000000000000, 0.0000000000000000000 ) ) ;
#62 = DIRECTION ( 'NONE',  ( 4.275831445896958607E-31, 1.000000000000000000, 1.224646799147353207E-16 ) ) ;
#63 = CC_DESIGN_PERSON_AND_ORGANIZATION_ASSIGNMENT ( #50, #162, ( #273 ) ) ;
#64 = CC_DESIGN_APPROVAL ( #292, ( #273 ) ) ;
#65 = CYLINDRICAL_SURFACE ( 'NONE', #213, 0.8384999999999994680 ) ;
#66 = VERTEX_POINT ( 'NONE', #251 ) ;
#67 = CARTESIAN_POINT ( 'NONE',  ( 0.0000000000000000000, 0.0000000000000000000, 0.0000000000000000000 ) ) ;
#68 = CARTESIAN_POINT ( 'NONE',  ( 2.444036937190193349E-14, 0.8384999999999990239, 7.000000000000000000 ) ) ;
#69 = CARTESIAN_POINT ( 'NONE',  ( 5.707628016518647231E-14, 0.7653844939755791721, 16.34729635533384240 ) ) ;
#70 = APPROVAL ( #146, 'UNSPECIFIED' ) ;
#71 = AXIS2_PLACEMENT_3D ( 'NONE', #229, #205, #41 ) ;
#72 = LOCAL_TIME ( 9, 32, 51.00000000000000000, #47 ) ;
#73 = VERTEX_POINT ( 'NONE', #114 ) ;
#74 = EDGE_LOOP ( 'NONE', ( #153 ) ) ;
#75 = DATE_AND_TIME ( #241, #193 ) ;
#76 = ORIENTED_EDGE ( 'NONE', *, *, #90, .F. ) ;
#77 = SHAPE_DEFINITION_REPRESENTATION ( #132, #148 ) ;
#78 = DIRECTION ( 'NONE',  ( 3.491481338843133355E-15, -1.224646799147353207E-16, 1.000000000000000000 ) ) ;
#79 = CIRCLE ( 'NONE', #24, 1.200000000000001732 ) ;
#80 = CIRCLE ( 'NONE', #239, 0.8384999999999999121 ) ;
#81 = CC_DESIGN_PERSON_AND_ORGANIZATION_ASSIGNMENT ( #196, #215, ( #141 ) ) ;
#82 = APPLICATION_CONTEXT ( 'configuration controlled 3d designs of mechanical parts and assemblies' ) ;
#83 = CIRCLE ( 'NONE', #260, 1.499999999999996669 ) ;
#84 = ORIENTED_EDGE ( 'NONE', *, *, #226, .T. ) ;
#85 = LOCAL_TIME ( 9, 32, 51.00000000000000000, #303 ) ;
#86 = PERSON ( 'UNSPECIFIED', 'UNSPECIFIED', 'UNSPECIFIED', ('UNSPECIFIED'), ('UNSPECIFIED'), ('UNSPECIFIED') ) ;
#87 = ADVANCED_FACE ( 'NONE', ( #224, #5 ), #300, .T. ) ;
#88 = VERTEX_POINT ( 'NONE', #111 ) ;
#89 = DIRECTION ( 'NONE',  ( 0.0000000000000000000, 1.000000000000000000, 0.0000000000000000000 ) ) ;
#90 = EDGE_CURVE ( 'NONE', #88, #88, #103, .T. ) ;
#91 = CARTESIAN_POINT ( 'NONE',  ( 7.162253009360724542E-14, 1.499999999999994005, 20.51350791905954551 ) ) ;
#92 = AXIS2_PLACEMENT_3D ( 'NONE', #228, #288, #269 ) ;
#93 = CARTESIAN_POINT ( 'NONE',  ( 2.444036937190193349E-14, -8.572527594031473190E-16, 7.000000000000000000 ) ) ;
#94 = EDGE_LOOP ( 'NONE', ( #96 ) ) ;
#95 = APPROVAL_ROLE ( '' ) ;
#96 = ORIENTED_EDGE ( 'NONE', *, *, #35, .T. ) ;
#97 = DATE_TIME_ROLE ( 'creation_date' ) ;
#98 = EDGE_CURVE ( 'NONE', #110, #110, #18, .T. ) ;
#99 = PLANE ( 'NONE',  #294 ) ;
#100 = PERSON_AND_ORGANIZATION_ROLE ( 'creator' ) ;
#101 = DIRECTION ( 'NONE',  ( -3.491481338843133355E-15, 1.224646799147353207E-16, -1.000000000000000000 ) ) ;
#102 = CARTESIAN_POINT ( 'NONE',  ( 2.444036937190193349E-14, -8.572527594031473190E-16, 7.000000000000000000 ) ) ;
#103 = CIRCLE ( 'NONE', #92, 0.8384999999999990239 ) ;
#104 = CC_DESIGN_PERSON_AND_ORGANIZATION_ASSIGNMENT ( #142, #23, ( #152 ) ) ;
#105 = ORIENTED_EDGE ( 'NONE', *, *, #122, .F. ) ;
#106 = EDGE_LOOP ( 'NONE', ( #32 ) ) ;
#107 =( GEOMETRIC_REPRESENTATION_CONTEXT ( 3 ) GLOBAL_UNCERTAINTY_ASSIGNED_CONTEXT ( ( #108 ) ) GLOBAL_UNIT_ASSIGNED_CONTEXT ( ( #276, #16, #130 ) ) REPRESENTATION_CONTEXT ( 'NONE', 'WORKASPACE' ) );
#108 = UNCERTAINTY_MEASURE_WITH_UNIT (LENGTH_MEASURE( 1.000000000000000082E-05 ), #276, 'distance_accuracy_value', 'NONE');
#109 = CC_DESIGN_DATE_AND_TIME_ASSIGNMENT ( #26, #281, ( #141 ) ) ;
#110 = VERTEX_POINT ( 'NONE', #210 ) ;
#111 = CARTESIAN_POINT ( 'NONE',  ( 8.728703347107833388E-16, 0.8384999999999990239, 0.2500000000000000000 ) ) ;
#112 = EDGE_CURVE ( 'NONE', #158, #158, #140, .T. ) ;
#113 = AXIS2_PLACEMENT_3D ( 'NONE', #265, #270, #37 ) ;
#114 = CARTESIAN_POINT ( 'NONE',  ( 1.745740669421566678E-13, 1.199999999999995515, 50.00000000000000000 ) ) ;
#115 = EDGE_LOOP ( 'NONE', ( #121 ) ) ;
#116 = MECHANICAL_CONTEXT ( 'NONE', #188, 'mechanical' ) ;
#117 = PERSON_AND_ORGANIZATION ( #86, #134 ) ;
#118 = ADVANCED_FACE ( 'NONE', ( #285, #175 ), #197, .T. ) ;
#119 = DIRECTION ( 'NONE',  ( 0.0000000000000000000, 1.000000000000000000, 0.0000000000000000000 ) ) ;
#120 = APPROVAL_STATUS ( 'not_yet_approved' ) ;
#121 = ORIENTED_EDGE ( 'NONE', *, *, #98, .F. ) ;
#122 = EDGE_CURVE ( 'NONE', #295, #295, #223, .T. ) ;
#123 = CARTESIAN_POINT ( 'NONE',  ( 2.444036937190193349E-14, -8.572527594031473190E-16, 7.000000000000000000 ) ) ;
#124 = APPROVAL ( #143, 'UNSPECIFIED' ) ;
#125 = ORIENTED_EDGE ( 'NONE', *, *, #35, .F. ) ;
#126 = FACE_OUTER_BOUND ( 'NONE', #115, .T. ) ;
#127 = EDGE_LOOP ( 'NONE', ( #22 ) ) ;
#128 = ORIENTED_EDGE ( 'NONE', *, *, #222, .F. ) ;
#129 = FACE_OUTER_BOUND ( 'NONE', #138, .T. ) ;
#130 =( NAMED_UNIT ( * ) SI_UNIT ( $, .STERADIAN. ) SOLID_ANGLE_UNIT ( ) );
#131 = ADVANCED_FACE ( 'NONE', ( #258, #147 ), #233, .T. ) ;
#132 = PRODUCT_DEFINITION_SHAPE ( 'NONE', 'NONE',  #152 ) ;
#133 = AXIS2_PLACEMENT_3D ( 'NONE', #178, #34, #51 ) ;
#134 = ORGANIZATION ( 'UNSPECIFIED', 'UNSPECIFIED', '' ) ;
#135 = DIRECTION ( 'NONE',  ( -3.491481338843133355E-15, 1.224646799147353207E-16, -1.000000000000000000 ) ) ;
#136 = CARTESIAN_POINT ( 'NONE',  ( 0.0000000000000000000, 0.0000000000000000000, 0.0000000000000000000 ) ) ;
#137 = COORDINATED_UNIVERSAL_TIME_OFFSET ( 1, 0, .AHEAD. ) ;
#138 = EDGE_LOOP ( 'NONE', ( #177 ) ) ;
#139 = MANIFOLD_SOLID_BREP ( 'Corps-Déplacer/Copier1[2]', #245 ) ;
#140 = CIRCLE ( 'NONE', #3, 0.8384999999999999121 ) ;
#141 = SECURITY_CLASSIFICATION ( '', '', #283 ) ;
#142 = PERSON_AND_ORGANIZATION ( #86, #134 ) ;
#143 = APPROVAL_STATUS ( 'not_yet_approved' ) ;
#144 = DIRECTION ( 'NONE',  ( 3.491481338843133355E-15, -1.224646799147353207E-16, 1.000000000000000000 ) ) ;
#145 = DIRECTION ( 'NONE',  ( -4.275831445896958607E-31, -1.000000000000000000, -1.224646799147353207E-16 ) ) ;
#146 = APPROVAL_STATUS ( 'not_yet_approved' ) ;
#147 = FACE_OUTER_BOUND ( 'NONE', #227, .T. ) ;
#148 = ADVANCED_BREP_SHAPE_REPRESENTATION ( '965451', ( #244, #139, #14 ), #107 ) ;
#149 = DIRECTION ( 'NONE',  ( 4.275831445896958607E-31, 1.000000000000000000, 1.224646799147353207E-16 ) ) ;
#150 = EDGE_LOOP ( 'NONE', ( #194 ) ) ;
#151 = ORIENTED_EDGE ( 'NONE', *, *, #240, .F. ) ;
#152 = PRODUCT_DEFINITION ( 'UNKNOWN', '', #273, #183 ) ;
#153 = ORIENTED_EDGE ( 'NONE', *, *, #226, .F. ) ;
#154 = DIRECTION ( 'NONE',  ( 0.0000000000000000000, 1.000000000000000000, 0.0000000000000000000 ) ) ;
#155 = DIRECTION ( 'NONE',  ( -4.593750612730442666E-31, -1.000000000000000000, -1.293025846732863079E-16 ) ) ;
#156 = AXIS2_PLACEMENT_3D ( 'NONE', #40, #235, #212 ) ;
#157 = CARTESIAN_POINT ( 'NONE',  ( 1.735266225405037467E-13, 1.499999999999995559, 49.70000000000000284 ) ) ;
#158 = VERTEX_POINT ( 'NONE', #68 ) ;
#159 = AXIS2_PLACEMENT_3D ( 'NONE', #246, #253, #119 ) ;
#160 = VERTEX_POINT ( 'NONE', #91 ) ;
#161 = CC_DESIGN_DATE_AND_TIME_ASSIGNMENT ( #164, #97, ( #152 ) ) ;
#162 = PERSON_AND_ORGANIZATION_ROLE ( 'design_supplier' ) ;
#163 = EDGE_LOOP ( 'NONE', ( #8 ) ) ;
#164 = DATE_AND_TIME ( #279, #72 ) ;
#165 = AXIS2_PLACEMENT_3D ( 'NONE', #301, #78, #259 ) ;
#166 = ADVANCED_FACE ( 'NONE', ( #242 ), #99, .T. ) ;
#167 = CALENDAR_DATE ( 2021, 30, 11 ) ;
#168 = FACE_OUTER_BOUND ( 'NONE', #106, .T. ) ;
#169 = CARTESIAN_POINT ( 'NONE',  ( 8.728703347107829444E-16, -3.061616997868381785E-17, 0.2499999999999998890 ) ) ;
#170 = APPROVAL_DATE_TIME ( #299, #124 ) ;
#171 = DIRECTION ( 'NONE',  ( -3.491481338843133355E-15, 1.224646799147353207E-16, -1.000000000000000000 ) ) ;
#172 = PERSON_AND_ORGANIZATION ( #86, #134 ) ;
#173 = LOCAL_TIME ( 9, 32, 51.00000000000000000, #137 ) ;
#174 = ADVANCED_FACE ( 'NONE', ( #221 ), #261, .F. ) ;
#175 = FACE_OUTER_BOUND ( 'NONE', #277, .T. ) ;
#176 = EDGE_LOOP ( 'NONE', ( #271 ) ) ;
#177 = ORIENTED_EDGE ( 'NONE', *, *, #21, .F. ) ;
#178 = CARTESIAN_POINT ( 'NONE',  ( 7.162253009360724542E-14, -2.512180181236015366E-15, 20.51350791905954551 ) ) ;
#179 = CYLINDRICAL_SURFACE ( 'NONE', #200, 0.7350000000000007638 ) ;
#180 = DIRECTION ( 'NONE',  ( -3.491481338843133355E-15, 1.224646799147353207E-16, -1.000000000000000000 ) ) ;
#181 = CC_DESIGN_APPROVAL ( #124, ( #141 ) ) ;
#182 = FACE_OUTER_BOUND ( 'NONE', #286, .T. ) ;
#183 = DESIGN_CONTEXT ( 'detailed design', #82, 'design' ) ;
#184 = EDGE_LOOP ( 'NONE', ( #128 ) ) ;
#185 = EDGE_LOOP ( 'NONE', ( #84 ) ) ;
#186 = VERTEX_POINT ( 'NONE', #46 ) ;
#187 = AXIS2_PLACEMENT_3D ( 'NONE', #123, #201, #61 ) ;
#188 = APPLICATION_CONTEXT ( 'configuration controlled 3d designs of mechanical parts and assemblies' ) ;
#189 = PERSON_AND_ORGANIZATION_ROLE ( 'design_owner' ) ;
#190 = PRODUCT ( '965451', '965451', '', ( #116 ) ) ;
#191 = FACE_OUTER_BOUND ( 'NONE', #185, .T. ) ;
#192 = ADVANCED_FACE ( 'NONE', ( #58 ), #302, .F. ) ;
#193 = LOCAL_TIME ( 9, 32, 51.00000000000000000, #217 ) ;
#194 = ORIENTED_EDGE ( 'NONE', *, *, #298, .F. ) ;
#195 = CALENDAR_DATE ( 2021, 30, 11 ) ;
#196 = PERSON_AND_ORGANIZATION ( #86, #134 ) ;
#197 = CONICAL_SURFACE ( 'NONE', #187, 0.8384999999999999121, 0.5235987755982949299 ) ;
#198 = DIRECTION ( 'NONE',  ( 0.0000000000000000000, 1.000000000000000000, 0.0000000000000000000 ) ) ;
#199 = ORIENTED_EDGE ( 'NONE', *, *, #240, .T. ) ;
#200 = AXIS2_PLACEMENT_3D ( 'NONE', #27, #101, #149 ) ;
#201 = DIRECTION ( 'NONE',  ( -3.491481338843133355E-15, 1.224646799147353207E-16, -1.000000000000000000 ) ) ;
#202 = EDGE_LOOP ( 'NONE', ( #76 ) ) ;
#203 = DIRECTION ( 'NONE',  ( -3.491481338843133355E-15, 1.224646799147353207E-16, -1.000000000000000000 ) ) ;
#204 = AXIS2_PLACEMENT_3D ( 'NONE', #289, #272, #154 ) ;
#205 = DIRECTION ( 'NONE',  ( -3.491481338843133355E-15, 1.224646799147353207E-16, -1.000000000000000000 ) ) ;
#206 = DIRECTION ( 'NONE',  ( -3.491481338843133355E-15, 1.224646799147353207E-16, -1.000000000000000000 ) ) ;
#207 = ADVANCED_FACE ( 'NONE', ( #7, #39 ), #252, .T. ) ;
#208 = PERSON_AND_ORGANIZATION ( #86, #134 ) ;
#209 = DIRECTION ( 'NONE',  ( 0.0000000000000000000, 1.000000000000000000, 0.0000000000000000000 ) ) ;
#210 = CARTESIAN_POINT ( 'NONE',  ( 2.506627765991136237E-14, 0.7350000000000004308, 7.179267258583378108 ) ) ;
#211 = ORIENTED_EDGE ( 'NONE', *, *, #122, .T. ) ;
#212 = DIRECTION ( 'NONE',  ( 0.0000000000000000000, 1.000000000000000000, 0.0000000000000000000 ) ) ;
#213 = AXIS2_PLACEMENT_3D ( 'NONE', #247, #180, #62 ) ;
#214 = LOCAL_TIME ( 9, 32, 51.00000000000000000, #49 ) ;
#215 = PERSON_AND_ORGANIZATION_ROLE ( 'classification_officer' ) ;
#216 = APPROVAL_DATE_TIME ( #75, #292 ) ;
#217 = COORDINATED_UNIVERSAL_TIME_OFFSET ( 1, 0, .AHEAD. ) ;
#218 = AXIS2_PLACEMENT_3D ( 'NONE', #67, #31, #287 ) ;
#219 = APPROVAL_PERSON_ORGANIZATION ( #117, #292, #53 ) ;
#220 = CARTESIAN_POINT ( 'NONE',  ( 1.745740669421566678E-13, 8.998558695971067645E-33, 50.00000000000000000 ) ) ;
#221 = FACE_OUTER_BOUND ( 'NONE', #36, .T. ) ;
#222 = EDGE_CURVE ( 'NONE', #160, #160, #83, .T. ) ;
#223 = CIRCLE ( 'NONE', #159, 1.500000000000001554 ) ;
#224 = FACE_BOUND ( 'NONE', #150, .T. ) ;
#225 = FACE_OUTER_BOUND ( 'NONE', #280, .T. ) ;
#226 = EDGE_CURVE ( 'NONE', #230, #230, #45, .T. ) ;
#227 = EDGE_LOOP ( 'NONE', ( #268 ) ) ;
#228 = CARTESIAN_POINT ( 'NONE',  ( 8.728703347107829444E-16, -3.061616997868381785E-17, 0.2499999999999998890 ) ) ;
#229 = CARTESIAN_POINT ( 'NONE',  ( 1.745740669421566678E-13, -6.123233995736766085E-15, 50.00000000000000000 ) ) ;
#230 = VERTEX_POINT ( 'NONE', #69 ) ;
#231 = DIRECTION ( 'NONE',  ( 1.000000000000000000, 0.0000000000000000000, 0.0000000000000000000 ) ) ;
#232 = CARTESIAN_POINT ( 'NONE',  ( 5.586370142149013368E-14, 0.7349999999999982103, 16.00000000000000000 ) ) ;
#233 = CONICAL_SURFACE ( 'NONE', #133, 1.499999999999996669, 0.1745329251994259812 ) ;
#234 = APPROVAL_PERSON_ORGANIZATION ( #255, #70, #257 ) ;
#235 = DIRECTION ( 'NONE',  ( -3.491481338843133355E-15, 1.224646799147353207E-16, -1.000000000000000000 ) ) ;
#236 = DIRECTION ( 'NONE',  ( 0.0000000000000000000, 0.0000000000000000000, 1.000000000000000000 ) ) ;
#237 = DATE_AND_TIME ( #167, #85 ) ;
#238 = AXIS2_PLACEMENT_3D ( 'NONE', #169, #144, #155 ) ;
#239 = AXIS2_PLACEMENT_3D ( 'NONE', #93, #135, #89 ) ;
#240 = EDGE_CURVE ( 'NONE', #66, #66, #80, .T. ) ;
#241 = CALENDAR_DATE ( 2021, 30, 11 ) ;
#242 = FACE_OUTER_BOUND ( 'NONE', #176, .T. ) ;
#243 = DIRECTION ( 'NONE',  ( 4.275831445896958607E-31, 1.000000000000000000, 1.224646799147353207E-16 ) ) ;
#244 = MANIFOLD_SOLID_BREP ( 'Corps-Déplacer/Copier1[1]', #44 ) ;
#245 = CLOSED_SHELL ( 'NONE', ( #192, #87, #17, #166 ) ) ;
#246 = CARTESIAN_POINT ( 'NONE',  ( 1.735266225405037467E-13, -6.086494591762345225E-15, 49.70000000000000284 ) ) ;
#247 = CARTESIAN_POINT ( 'NONE',  ( 0.0000000000000000000, 0.0000000000000000000, 0.0000000000000000000 ) ) ;
#248 = VERTEX_POINT ( 'NONE', #232 ) ;
#249 = DIRECTION ( 'NONE',  ( 4.275831445896958607E-31, 1.000000000000000000, 1.224646799147353207E-16 ) ) ;
#250 = CC_DESIGN_PERSON_AND_ORGANIZATION_ASSIGNMENT ( #297, #100, ( #273 ) ) ;
#251 = CARTESIAN_POINT ( 'NONE',  ( 2.444036937190193349E-14, 0.8384999999999990239, 7.000000000000000000 ) ) ;
#252 = CONICAL_SURFACE ( 'NONE', #71, 1.200000000000001732, 0.7853981633974453924 ) ;
#253 = DIRECTION ( 'NONE',  ( -3.491481338843133355E-15, 1.224646799147353207E-16, -1.000000000000000000 ) ) ;
#254 = APPLICATION_PROTOCOL_DEFINITION ( 'international standard', 'config_control_design', 1994, #188 ) ;
#255 = PERSON_AND_ORGANIZATION ( #86, #134 ) ;
#256 = ORIENTED_EDGE ( 'NONE', *, *, #21, .T. ) ;
#257 = APPROVAL_ROLE ( '' ) ;
#258 = FACE_BOUND ( 'NONE', #74, .T. ) ;
#259 = DIRECTION ( 'NONE',  ( -4.275831445896958607E-31, -1.000000000000000000, -1.224646799147353207E-16 ) ) ;
#260 = AXIS2_PLACEMENT_3D ( 'NONE', #274, #19, #293 ) ;
#261 = PLANE ( 'NONE',  #165 ) ;
#262 = FACE_OUTER_BOUND ( 'NONE', #60, .T. ) ;
#263 = APPROVAL_DATE_TIME ( #237, #70 ) ;
#264 = APPLICATION_PROTOCOL_DEFINITION ( 'international standard', 'config_control_design', 1994, #82 ) ;
#265 = CARTESIAN_POINT ( 'NONE',  ( -1.484060779155043120E-31, 5.205384496010349032E-33, -4.250519006487863526E-17 ) ) ;
#266 = AXIS2_PLACEMENT_3D ( 'NONE', #275, #206, #249 ) ;
#267 = DIRECTION ( 'NONE',  ( -3.491481338843133355E-15, 1.224646799147353207E-16, -1.000000000000000000 ) ) ;
#268 = ORIENTED_EDGE ( 'NONE', *, *, #222, .T. ) ;
#269 = DIRECTION ( 'NONE',  ( 4.593750612730442666E-31, 1.000000000000000000, 1.293025846732863079E-16 ) ) ;
#270 = DIRECTION ( 'NONE',  ( 3.491481338843133355E-15, -1.224646799147353207E-16, 1.000000000000000000 ) ) ;
#271 = ORIENTED_EDGE ( 'NONE', *, *, #112, .F. ) ;
#272 = DIRECTION ( 'NONE',  ( -3.491481338843133355E-15, 1.224646799147353207E-16, -1.000000000000000000 ) ) ;
#273 = PRODUCT_DEFINITION_FORMATION_WITH_SPECIFIED_SOURCE ( 'ANY', '', #190, .NOT_KNOWN. ) ;
#274 = CARTESIAN_POINT ( 'NONE',  ( 7.162253009360724542E-14, -2.512180181236015366E-15, 20.51350791905954551 ) ) ;
#275 = CARTESIAN_POINT ( 'NONE',  ( -2.968121558310086241E-31, 1.041076899202069806E-32, -8.501038012975727051E-17 ) ) ;
#276 =( LENGTH_UNIT ( ) NAMED_UNIT ( * ) SI_UNIT ( .MILLI., .METRE. ) );
#277 = EDGE_LOOP ( 'NONE', ( #151 ) ) ;
#278 = ADVANCED_FACE ( 'NONE', ( #129, #191 ), #33, .F. ) ;
#279 = CALENDAR_DATE ( 2021, 30, 11 ) ;
#280 = EDGE_LOOP ( 'NONE', ( #211 ) ) ;
#281 = DATE_TIME_ROLE ( 'classification_date' ) ;
#282 = PLANE ( 'NONE',  #290 ) ;
#283 = SECURITY_CLASSIFICATION_LEVEL ( 'unclassified' ) ;
#284 = FACE_OUTER_BOUND ( 'NONE', #202, .T. ) ;
#285 = FACE_BOUND ( 'NONE', #59, .T. ) ;
#286 = EDGE_LOOP ( 'NONE', ( #256 ) ) ;
#287 = DIRECTION ( 'NONE',  ( 4.275831445896958607E-31, 1.000000000000000000, 1.224646799147353454E-16 ) ) ;
#288 = DIRECTION ( 'NONE',  ( -3.491481338843133355E-15, 1.224646799147353207E-16, -1.000000000000000000 ) ) ;
#289 = CARTESIAN_POINT ( 'NONE',  ( 2.506627765991136237E-14, -8.792066668447528551E-16, 7.179267258583378108 ) ) ;
#290 = AXIS2_PLACEMENT_3D ( 'NONE', #220, #171, #243 ) ;
#291 = CIRCLE ( 'NONE', #266, 0.6941624327025948116 ) ;
#292 = APPROVAL ( #120, 'UNSPECIFIED' ) ;
#293 = DIRECTION ( 'NONE',  ( 0.0000000000000000000, 1.000000000000000000, 0.0000000000000000000 ) ) ;
#294 = AXIS2_PLACEMENT_3D ( 'NONE', #55, #52, #145 ) ;
#295 = VERTEX_POINT ( 'NONE', #157 ) ;
#296 = CALENDAR_DATE ( 2021, 30, 11 ) ;
#297 = PERSON_AND_ORGANIZATION ( #86, #134 ) ;
#298 = EDGE_CURVE ( 'NONE', #186, #186, #291, .T. ) ;
#299 = DATE_AND_TIME ( #195, #173 ) ;
#300 = CONICAL_SURFACE ( 'NONE', #238, 0.8384999999999990239, 0.5235987755982923764 ) ;
#301 = CARTESIAN_POINT ( 'NONE',  ( 2.444036937190193349E-14, 6.287742888809824528E-33, 7.000000000000000000 ) ) ;
#302 = PLANE ( 'NONE',  #113 ) ;
#303 = COORDINATED_UNIVERSAL_TIME_OFFSET ( 1, 0, .AHEAD. ) ;
ENDSEC;
END-ISO-10303-21;
