ISO-10303-21;
HEADER;
FILE_DESCRIPTION (( 'STEP AP203' ),
    '1' );
FILE_NAME ('965219.step',
    '2021-11-30T09:57:15',
    ( '' ),
    ( '' ),
    'SwSTEP 2.0',
    'SolidWorks 2019',
    '' );
FILE_SCHEMA (( 'CONFIG_CONTROL_DESIGN' ));
ENDSEC;

DATA;
#1 = AXIS2_PLACEMENT_3D ( 'NONE', #60, #288, #287 ) ;
#2 = CALENDAR_DATE ( 2021, 30, 11 ) ;
#3 = DIRECTION ( 'NONE',  ( 4.275831445896959482E-31, 1.000000000000000000, 1.224646799147353454E-16 ) ) ;
#4 = CALENDAR_DATE ( 2021, 30, 11 ) ;
#5 = DIRECTION ( 'NONE',  ( -3.491481338843133355E-15, 1.224646799147353454E-16, -1.000000000000000000 ) ) ;
#6 = EDGE_LOOP ( 'NONE', ( #50 ) ) ;
#7 = CLOSED_SHELL ( 'NONE', ( #196, #62, #24, #172, #17, #71, #51, #122 ) ) ;
#8 = LOCAL_TIME ( 10, 57, 15.00000000000000000, #230 ) ;
#9 = FACE_OUTER_BOUND ( 'NONE', #189, .T. ) ;
#10 = FACE_OUTER_BOUND ( 'NONE', #96, .T. ) ;
#11 = DIRECTION ( 'NONE',  ( -3.491481338843133355E-15, 1.224646799147353454E-16, -1.000000000000000000 ) ) ;
#12 = CC_DESIGN_DATE_AND_TIME_ASSIGNMENT ( #283, #279, ( #55 ) ) ;
#13 = APPLICATION_CONTEXT ( 'configuration controlled 3d designs of mechanical parts and assemblies' ) ;
#14 = CIRCLE ( 'NONE', #151, 1.398500000000000076 ) ;
#15 = DIRECTION ( 'NONE',  ( 0.0000000000000000000, 1.000000000000000000, 0.0000000000000000000 ) ) ;
#16 = EDGE_LOOP ( 'NONE', ( #167 ) ) ;
#17 = ADVANCED_FACE ( 'NONE', ( #65, #155 ), #278, .T. ) ;
#18 = COORDINATED_UNIVERSAL_TIME_OFFSET ( 1, 0, .AHEAD. ) ;
#19 = LOCAL_TIME ( 10, 57, 15.00000000000000000, #275 ) ;
#20 = EDGE_LOOP ( 'NONE', ( #229 ) ) ;
#21 = PERSON_AND_ORGANIZATION ( #101, #133 ) ;
#22 = ORIENTED_EDGE ( 'NONE', *, *, #168, .F. ) ;
#23 = DIRECTION ( 'NONE',  ( 0.0000000000000000000, 0.0000000000000000000, 1.000000000000000000 ) ) ;
#24 = ADVANCED_FACE ( 'NONE', ( #298, #185 ), #67, .T. ) ;
#25 = FACE_BOUND ( 'NONE', #144, .T. ) ;
#26 = AXIS2_PLACEMENT_3D ( 'NONE', #78, #74, #197 ) ;
#27 = CC_DESIGN_APPROVAL ( #36, ( #141 ) ) ;
#28 = CARTESIAN_POINT ( 'NONE',  ( 3.611522686833351350E-14, -1.266751636124733252E-15, 10.34381208530243157 ) ) ;
#29 = PERSON_AND_ORGANIZATION ( #101, #133 ) ;
#30 = AXIS2_PLACEMENT_3D ( 'NONE', #45, #88, #120 ) ;
#31 = EDGE_LOOP ( 'NONE', ( #190 ) ) ;
#32 = EDGE_LOOP ( 'NONE', ( #91 ) ) ;
#33 = CARTESIAN_POINT ( 'NONE',  ( 3.491481338843133355E-14, 1.048707028026302364E-32, 10.00000000000000000 ) ) ;
#34 = CONICAL_SURFACE ( 'NONE', #46, 1.199999999999998179, 0.5235987755982921543 ) ;
#35 = PLANE ( 'NONE',  #118 ) ;
#36 = APPROVAL ( #156, 'UNSPECIFIED' ) ;
#37 = DIRECTION ( 'NONE',  ( 3.491481338843133355E-15, -1.224646799147353454E-16, 1.000000000000000000 ) ) ;
#38 = CARTESIAN_POINT ( 'NONE',  ( 3.491481338843133355E-14, 1.048707028026302364E-32, 10.00000000000000000 ) ) ;
#39 = DIRECTION ( 'NONE',  ( -4.275831445896959482E-31, -1.000000000000000000, -1.224646799147353454E-16 ) ) ;
#40 = ORIENTED_EDGE ( 'NONE', *, *, #191, .T. ) ;
#41 = CARTESIAN_POINT ( 'NONE',  ( -3.785471652766323589E-31, 1.254162432702594421, -1.084202172485504434E-16 ) ) ;
#42 = AXIS2_PLACEMENT_3D ( 'NONE', #286, #143, #139 ) ;
#43 = APPLICATION_PROTOCOL_DEFINITION ( 'international standard', 'config_control_design', 1994, #13 ) ;
#44 = VERTEX_POINT ( 'NONE', #296 ) ;
#45 = CARTESIAN_POINT ( 'NONE',  ( 2.129803616694311221E-13, -7.470345474798856659E-15, 61.00000000000000000 ) ) ;
#46 = AXIS2_PLACEMENT_3D ( 'NONE', #28, #5, #117 ) ;
#47 = PRODUCT_DEFINITION_FORMATION_WITH_SPECIFIED_SOURCE ( 'ANY', '', #159, .NOT_KNOWN. ) ;
#48 = PERSON_AND_ORGANIZATION ( #101, #133 ) ;
#49 = APPROVAL_STATUS ( 'not_yet_approved' ) ;
#50 = ORIENTED_EDGE ( 'NONE', *, *, #85, .T. ) ;
#51 = ADVANCED_FACE ( 'NONE', ( #260, #25 ), #93, .T. ) ;
#52 = DIRECTION ( 'NONE',  ( -3.491481338843133355E-15, 1.224646799147353454E-16, -1.000000000000000000 ) ) ;
#53 = FACE_OUTER_BOUND ( 'NONE', #158, .T. ) ;
#54 = AXIS2_PLACEMENT_3D ( 'NONE', #33, #266, #228 ) ;
#55 = SECURITY_CLASSIFICATION ( '', '', #68 ) ;
#56 = DIRECTION ( 'NONE',  ( 0.0000000000000000000, 1.000000000000000000, 0.0000000000000000000 ) ) ;
#57 = FACE_OUTER_BOUND ( 'NONE', #211, .T. ) ;
#58 = FACE_OUTER_BOUND ( 'NONE', #32, .T. ) ;
#59 = CIRCLE ( 'NONE', #124, 1.200000000000001510 ) ;
#60 = CARTESIAN_POINT ( 'NONE',  ( 8.728703347107833388E-14, -3.035766082959412415E-15, 25.00000000000000000 ) ) ;
#61 = DIRECTION ( 'NONE',  ( 1.000000000000000000, 0.0000000000000000000, 0.0000000000000000000 ) ) ;
#62 = ADVANCED_FACE ( 'NONE', ( #261, #219 ), #34, .T. ) ;
#63 = CARTESIAN_POINT ( 'NONE',  ( 9.383831593535533002E-14, 1.499999999999992673, 26.87636187293720269 ) ) ;
#64 = CIRCLE ( 'NONE', #140, 1.398500000000000076 ) ;
#65 = FACE_BOUND ( 'NONE', #274, .T. ) ;
#66 = CARTESIAN_POINT ( 'NONE',  ( 2.129803616694311221E-13, 1.199999999999993960, 61.00000000000000000 ) ) ;
#67 = CYLINDRICAL_SURFACE ( 'NONE', #258, 1.199999999999999289 ) ;
#68 = SECURITY_CLASSIFICATION_LEVEL ( 'unclassified' ) ;
#69 = APPROVAL_ROLE ( '' ) ;
#70 = PLANE ( 'NONE',  #26 ) ;
#71 = ADVANCED_FACE ( 'NONE', ( #254, #113 ), #72, .T. ) ;
#72 = CYLINDRICAL_SURFACE ( 'NONE', #105, 1.499999999999998668 ) ;
#73 = EDGE_LOOP ( 'NONE', ( #282 ) ) ;
#74 = DIRECTION ( 'NONE',  ( -3.491481338843133355E-15, 1.224646799147353454E-16, -1.000000000000000000 ) ) ;
#75 = DIRECTION ( 'NONE',  ( 3.491481338843133355E-15, -1.224646799147353454E-16, 1.000000000000000000 ) ) ;
#76 = AXIS2_PLACEMENT_3D ( 'NONE', #263, #11, #56 ) ;
#77 = DIRECTION ( 'NONE',  ( -3.491481338843133355E-15, 1.224646799147353454E-16, -1.000000000000000000 ) ) ;
#78 = CARTESIAN_POINT ( 'NONE',  ( 2.129803616694311221E-13, 8.998558695971049855E-33, 61.00000000000000000 ) ) ;
#79 = APPROVAL ( #253, 'UNSPECIFIED' ) ;
#80 = FACE_OUTER_BOUND ( 'NONE', #31, .T. ) ;
#81 = CIRCLE ( 'NONE', #89, 1.398499999999998744 ) ;
#82 = CARTESIAN_POINT ( 'NONE',  ( 8.849961221477469775E-14, 1.230384493975576365, 25.34729635533384595 ) ) ;
#83 = EDGE_LOOP ( 'NONE', ( #220 ) ) ;
#84 = PERSON_AND_ORGANIZATION_ROLE ( 'creator' ) ;
#85 = EDGE_CURVE ( 'NONE', #277, #277, #227, .T. ) ;
#86 = ORIENTED_EDGE ( 'NONE', *, *, #262, .F. ) ;
#87 = CARTESIAN_POINT ( 'NONE',  ( 0.0000000000000000000, 0.0000000000000000000, 0.0000000000000000000 ) ) ;
#88 = DIRECTION ( 'NONE',  ( -3.491481338843133355E-15, 1.224646799147353454E-16, -1.000000000000000000 ) ) ;
#89 = AXIS2_PLACEMENT_3D ( 'NONE', #173, #77, #174 ) ;
#90 = VERTEX_POINT ( 'NONE', #66 ) ;
#91 = ORIENTED_EDGE ( 'NONE', *, *, #203, .F. ) ;
#92 = COORDINATED_UNIVERSAL_TIME_OFFSET ( 1, 0, .AHEAD. ) ;
#93 = CONICAL_SURFACE ( 'NONE', #30, 1.200000000000001510, 0.7853981633974453924 ) ;
#94 = CC_DESIGN_SECURITY_CLASSIFICATION ( #55, ( #47 ) ) ;
#95 = COORDINATED_UNIVERSAL_TIME_OFFSET ( 1, 0, .AHEAD. ) ;
#96 = EDGE_LOOP ( 'NONE', ( #294 ) ) ;
#97 = PERSON_AND_ORGANIZATION_ROLE ( 'classification_officer' ) ;
#98 = CARTESIAN_POINT ( 'NONE',  ( 0.0000000000000000000, 0.0000000000000000000, 0.0000000000000000000 ) ) ;
#99 = ORIENTED_EDGE ( 'NONE', *, *, #203, .T. ) ;
#100 = AXIS2_PLACEMENT_3D ( 'NONE', #103, #75, #126 ) ;
#101 = PERSON ( 'UNSPECIFIED', 'UNSPECIFIED', 'UNSPECIFIED', ('UNSPECIFIED'), ('UNSPECIFIED'), ('UNSPECIFIED') ) ;
#102 = DIRECTION ( 'NONE',  ( 4.275831445896959482E-31, 1.000000000000000000, 1.224646799147353454E-16 ) ) ;
#103 = CARTESIAN_POINT ( 'NONE',  ( 8.728703347107827472E-16, -3.061616997868381785E-17, 0.2499999999999998335 ) ) ;
#104 = CARTESIAN_POINT ( 'NONE',  ( 9.383831593535533002E-14, -3.291405054041851591E-15, 26.87636187293720269 ) ) ;
#105 = AXIS2_PLACEMENT_3D ( 'NONE', #193, #52, #181 ) ;
#106 = LOCAL_TIME ( 10, 57, 15.00000000000000000, #18 ) ;
#107 = CARTESIAN_POINT ( 'NONE',  ( 3.491481338843133355E-14, -1.224646799147353454E-15, 10.00000000000000000 ) ) ;
#108 = DIRECTION ( 'NONE',  ( -3.491481338843133355E-15, 1.224646799147353454E-16, -1.000000000000000000 ) ) ;
#109 = ORIENTED_EDGE ( 'NONE', *, *, #85, .F. ) ;
#110 = DATE_AND_TIME ( #135, #106 ) ;
#111 = APPROVAL_PERSON_ORGANIZATION ( #29, #208, #69 ) ;
#112 =( LENGTH_UNIT ( ) NAMED_UNIT ( * ) SI_UNIT ( .MILLI., .METRE. ) );
#113 = FACE_OUTER_BOUND ( 'NONE', #83, .T. ) ;
#114 = APPROVAL_ROLE ( '' ) ;
#115 = DIRECTION ( 'NONE',  ( 0.0000000000000000000, -1.000000000000000000, 0.0000000000000000000 ) ) ;
#116 = CARTESIAN_POINT ( 'NONE',  ( 3.491481338843133355E-14, 1.398499999999998744, 10.00000000000000000 ) ) ;
#117 = DIRECTION ( 'NONE',  ( 0.0000000000000000000, 1.000000000000000000, 0.0000000000000000000 ) ) ;
#118 = AXIS2_PLACEMENT_3D ( 'NONE', #38, #175, #39 ) ;
#119 = CC_DESIGN_PERSON_AND_ORGANIZATION_ASSIGNMENT ( #164, #97, ( #55 ) ) ;
#120 = DIRECTION ( 'NONE',  ( 0.0000000000000000000, 1.000000000000000000, 0.0000000000000000000 ) ) ;
#121 = ORIENTED_EDGE ( 'NONE', *, *, #223, .F. ) ;
#122 = ADVANCED_FACE ( 'NONE', ( #213 ), #70, .F. ) ;
#123 = DIRECTION ( 'NONE',  ( -3.491481338843133355E-15, 1.224646799147353454E-16, -1.000000000000000000 ) ) ;
#124 = AXIS2_PLACEMENT_3D ( 'NONE', #290, #246, #222 ) ;
#125 = DIRECTION ( 'NONE',  ( -4.275831445896959482E-31, -1.000000000000000000, -1.224646799147353454E-16 ) ) ;
#126 = DIRECTION ( 'NONE',  ( -4.131419258606873439E-31, -1.000000000000000000, -1.162891139598325379E-16 ) ) ;
#127 = CARTESIAN_POINT ( 'NONE',  ( 0.0000000000000000000, 0.0000000000000000000, 0.0000000000000000000 ) ) ;
#128 = EDGE_LOOP ( 'NONE', ( #121 ) ) ;
#129 = CARTESIAN_POINT ( 'NONE',  ( 2.119329172677781757E-13, 1.499999999999994005, 60.69999999999999574 ) ) ;
#130 = PERSON_AND_ORGANIZATION_ROLE ( 'design_owner' ) ;
#131 = TOROIDAL_SURFACE ( 'NONE', #1, 3.200000000000000178, 2.000000000000000888 ) ;
#132 = AXIS2_PLACEMENT_3D ( 'NONE', #87, #23, #61 ) ;
#133 = ORGANIZATION ( 'UNSPECIFIED', 'UNSPECIFIED', '' ) ;
#134 =( NAMED_UNIT ( * ) PLANE_ANGLE_UNIT ( ) SI_UNIT ( $, .RADIAN. ) );
#135 = CALENDAR_DATE ( 2021, 30, 11 ) ;
#136 = EDGE_LOOP ( 'NONE', ( #109 ) ) ;
#137 = CARTESIAN_POINT ( 'NONE',  ( 3.491481338843133355E-14, 1.398499999999998744, 10.00000000000000000 ) ) ;
#138 = CC_DESIGN_PERSON_AND_ORGANIZATION_ASSIGNMENT ( #272, #84, ( #141 ) ) ;
#139 = DIRECTION ( 'NONE',  ( 0.0000000000000000000, 1.000000000000000000, 0.0000000000000000000 ) ) ;
#140 = AXIS2_PLACEMENT_3D ( 'NONE', #107, #200, #292 ) ;
#141 = PRODUCT_DEFINITION ( 'UNKNOWN', '', #47, #237 ) ;
#142 = AXIS2_PLACEMENT_3D ( 'NONE', #146, #293, #150 ) ;
#143 = DIRECTION ( 'NONE',  ( -3.491481338843133355E-15, 1.224646799147353454E-16, -1.000000000000000000 ) ) ;
#144 = EDGE_LOOP ( 'NONE', ( #165 ) ) ;
#145 = PLANE ( 'NONE',  #54 ) ;
#146 = CARTESIAN_POINT ( 'NONE',  ( 8.728703347107833388E-14, -3.061616997868383831E-15, 25.00000000000000000 ) ) ;
#147 = PRODUCT_RELATED_PRODUCT_CATEGORY ( 'detail', '', ( #159 ) ) ;
#148 = CARTESIAN_POINT ( 'NONE',  ( 8.849961221477469775E-14, -3.104148534859897544E-15, 25.34729635533384595 ) ) ;
#149 = APPLICATION_CONTEXT ( 'configuration controlled 3d designs of mechanical parts and assemblies' ) ;
#150 = DIRECTION ( 'NONE',  ( 0.0000000000000000000, 1.000000000000000000, 0.0000000000000000000 ) ) ;
#151 = AXIS2_PLACEMENT_3D ( 'NONE', #265, #245, #243 ) ;
#152 = ADVANCED_FACE ( 'NONE', ( #9, #57 ), #195, .T. ) ;
#153 = VERTEX_POINT ( 'NONE', #116 ) ;
#154 = CONICAL_SURFACE ( 'NONE', #100, 1.398499999999998744, 0.5235987755982924874 ) ;
#155 = FACE_OUTER_BOUND ( 'NONE', #16, .T. ) ;
#156 = APPROVAL_STATUS ( 'not_yet_approved' ) ;
#157 = UNCERTAINTY_MEASURE_WITH_UNIT (LENGTH_MEASURE( 1.000000000000000082E-05 ), #112, 'distance_accuracy_value', 'NONE');
#158 = EDGE_LOOP ( 'NONE', ( #40 ) ) ;
#159 = PRODUCT ( '965219', '965219', '', ( #303 ) ) ;
#160 = CIRCLE ( 'NONE', #199, 1.499999999999996003 ) ;
#161 = PERSON_AND_ORGANIZATION ( #101, #133 ) ;
#162 = LOCAL_TIME ( 10, 57, 15.00000000000000000, #95 ) ;
#163 = EDGE_CURVE ( 'NONE', #251, #251, #252, .T. ) ;
#164 = PERSON_AND_ORGANIZATION ( #101, #133 ) ;
#165 = ORIENTED_EDGE ( 'NONE', *, *, #223, .T. ) ;
#166 =( GEOMETRIC_REPRESENTATION_CONTEXT ( 3 ) GLOBAL_UNCERTAINTY_ASSIGNED_CONTEXT ( ( #157 ) ) GLOBAL_UNIT_ASSIGNED_CONTEXT ( ( #112, #134, #212 ) ) REPRESENTATION_CONTEXT ( 'NONE', 'WORKASPACE' ) );
#167 = ORIENTED_EDGE ( 'NONE', *, *, #262, .T. ) ;
#168 = EDGE_CURVE ( 'NONE', #44, #44, #81, .T. ) ;
#169 = ORIENTED_EDGE ( 'NONE', *, *, #232, .F. ) ;
#170 = FACE_OUTER_BOUND ( 'NONE', #179, .T. ) ;
#171 = FACE_OUTER_BOUND ( 'NONE', #73, .T. ) ;
#172 = ADVANCED_FACE ( 'NONE', ( #58, #53 ), #131, .F. ) ;
#173 = CARTESIAN_POINT ( 'NONE',  ( 8.728703347107827472E-16, -3.061616997868381785E-17, 0.2499999999999998335 ) ) ;
#174 = DIRECTION ( 'NONE',  ( 4.131419258606873439E-31, 1.000000000000000000, 1.162891139598325379E-16 ) ) ;
#175 = DIRECTION ( 'NONE',  ( 3.491481338843133355E-15, -1.224646799147353454E-16, 1.000000000000000000 ) ) ;
#176 = EDGE_LOOP ( 'NONE', ( #86 ) ) ;
#177 = CALENDAR_DATE ( 2021, 30, 11 ) ;
#178 = MANIFOLD_SOLID_BREP ( 'Corps-Déplacer/Copier1[1]', #7 ) ;
#179 = EDGE_LOOP ( 'NONE', ( #202 ) ) ;
#180 = APPLICATION_PROTOCOL_DEFINITION ( 'international standard', 'config_control_design', 1994, #149 ) ;
#181 = DIRECTION ( 'NONE',  ( 4.275831445896960358E-31, 1.000000000000000000, 1.224646799147353454E-16 ) ) ;
#182 = AXIS2_PLACEMENT_3D ( 'NONE', #148, #108, #241 ) ;
#183 = CC_DESIGN_PERSON_AND_ORGANIZATION_ASSIGNMENT ( #48, #256, ( #47 ) ) ;
#184 = APPROVAL_ROLE ( '' ) ;
#185 = FACE_OUTER_BOUND ( 'NONE', #276, .T. ) ;
#186 = ADVANCED_BREP_SHAPE_REPRESENTATION ( '965219', ( #178, #285, #132 ), #166 ) ;
#187 = PERSON_AND_ORGANIZATION_ROLE ( 'creator' ) ;
#188 = CC_DESIGN_APPROVAL ( #79, ( #47 ) ) ;
#189 = EDGE_LOOP ( 'NONE', ( #22 ) ) ;
#190 = ORIENTED_EDGE ( 'NONE', *, *, #214, .F. ) ;
#191 = EDGE_CURVE ( 'NONE', #236, #236, #221, .T. ) ;
#192 = APPROVAL_DATE_TIME ( #217, #79 ) ;
#193 = CARTESIAN_POINT ( 'NONE',  ( 0.0000000000000000000, 0.0000000000000000000, 0.0000000000000000000 ) ) ;
#194 = CARTESIAN_POINT ( 'NONE',  ( -9.148058820778706141E-31, 3.208707097655690315E-32, -2.620108181305594896E-16 ) ) ;
#195 = CYLINDRICAL_SURFACE ( 'NONE', #264, 1.398499999999999410 ) ;
#196 = ADVANCED_FACE ( 'NONE', ( #170 ), #145, .F. ) ;
#197 = DIRECTION ( 'NONE',  ( 4.275831445896959482E-31, 1.000000000000000000, 1.224646799147353454E-16 ) ) ;
#198 = CLOSED_SHELL ( 'NONE', ( #255, #250, #152, #242 ) ) ;
#199 = AXIS2_PLACEMENT_3D ( 'NONE', #104, #226, #15 ) ;
#200 = DIRECTION ( 'NONE',  ( -3.491481338843133355E-15, 1.224646799147353454E-16, -1.000000000000000000 ) ) ;
#201 = DIRECTION ( 'NONE',  ( -3.491481338843133355E-15, 1.224646799147353454E-16, -1.000000000000000000 ) ) ;
#202 = ORIENTED_EDGE ( 'NONE', *, *, #295, .T. ) ;
#203 = EDGE_CURVE ( 'NONE', #234, #234, #247, .T. ) ;
#204 = APPROVAL_DATE_TIME ( #110, #36 ) ;
#205 = AXIS2_PLACEMENT_3D ( 'NONE', #235, #302, #115 ) ;
#206 = VERTEX_POINT ( 'NONE', #63 ) ;
#207 = CARTESIAN_POINT ( 'NONE',  ( 3.611522686833351350E-14, 1.199999999999996847, 10.34381208530243157 ) ) ;
#208 = APPROVAL ( #49, 'UNSPECIFIED' ) ;
#209 = ORIENTED_EDGE ( 'NONE', *, *, #214, .T. ) ;
#210 = DATE_TIME_ROLE ( 'creation_date' ) ;
#211 = EDGE_LOOP ( 'NONE', ( #209 ) ) ;
#212 =( NAMED_UNIT ( * ) SI_UNIT ( $, .STERADIAN. ) SOLID_ANGLE_UNIT ( ) );
#213 = FACE_OUTER_BOUND ( 'NONE', #128, .T. ) ;
#214 = EDGE_CURVE ( 'NONE', #153, #153, #14, .T. ) ;
#215 = CALENDAR_DATE ( 2021, 30, 11 ) ;
#216 = CIRCLE ( 'NONE', #76, 1.500000000000001332 ) ;
#217 = DATE_AND_TIME ( #215, #19 ) ;
#218 = DATE_AND_TIME ( #2, #231 ) ;
#219 = FACE_BOUND ( 'NONE', #6, .T. ) ;
#220 = ORIENTED_EDGE ( 'NONE', *, *, #232, .T. ) ;
#221 = CIRCLE ( 'NONE', #182, 1.230384493975579252 ) ;
#222 = DIRECTION ( 'NONE',  ( 0.0000000000000000000, 1.000000000000000000, 0.0000000000000000000 ) ) ;
#223 = EDGE_CURVE ( 'NONE', #90, #90, #59, .T. ) ;
#224 = FACE_BOUND ( 'NONE', #20, .T. ) ;
#225 = PLANE ( 'NONE',  #297 ) ;
#226 = DIRECTION ( 'NONE',  ( -3.491481338843133355E-15, 1.224646799147353454E-16, -1.000000000000000000 ) ) ;
#227 = CIRCLE ( 'NONE', #42, 1.199999999999998179 ) ;
#228 = DIRECTION ( 'NONE',  ( -4.275831445896959482E-31, -1.000000000000000000, -1.224646799147353454E-16 ) ) ;
#229 = ORIENTED_EDGE ( 'NONE', *, *, #163, .F. ) ;
#230 = COORDINATED_UNIVERSAL_TIME_OFFSET ( 1, 0, .AHEAD. ) ;
#231 = LOCAL_TIME ( 10, 57, 15.00000000000000000, #92 ) ;
#232 = EDGE_CURVE ( 'NONE', #300, #300, #216, .T. ) ;
#233 = DATE_AND_TIME ( #177, #8 ) ;
#234 = VERTEX_POINT ( 'NONE', #270 ) ;
#235 = CARTESIAN_POINT ( 'NONE',  ( 9.383831593535533002E-14, -3.291405054041851591E-15, 26.87636187293720269 ) ) ;
#236 = VERTEX_POINT ( 'NONE', #82 ) ;
#237 = DESIGN_CONTEXT ( 'detailed design', #149, 'design' ) ;
#238 = SHAPE_DEFINITION_REPRESENTATION ( #299, #186 ) ;
#239 = ORIENTED_EDGE ( 'NONE', *, *, #191, .F. ) ;
#240 = ORIENTED_EDGE ( 'NONE', *, *, #295, .F. ) ;
#241 = DIRECTION ( 'NONE',  ( 0.0000000000000000000, 1.000000000000000000, 0.0000000000000000000 ) ) ;
#242 = ADVANCED_FACE ( 'NONE', ( #80 ), #35, .T. ) ;
#243 = DIRECTION ( 'NONE',  ( 0.0000000000000000000, 1.000000000000000000, 0.0000000000000000000 ) ) ;
#244 = CARTESIAN_POINT ( 'NONE',  ( -4.574029410389353071E-31, 1.604353548827845157E-32, -1.310054090652797448E-16 ) ) ;
#245 = DIRECTION ( 'NONE',  ( -3.491481338843133355E-15, 1.224646799147353454E-16, -1.000000000000000000 ) ) ;
#246 = DIRECTION ( 'NONE',  ( -3.491481338843133355E-15, 1.224646799147353454E-16, -1.000000000000000000 ) ) ;
#247 = CIRCLE ( 'NONE', #142, 1.200000000000000178 ) ;
#248 = PERSON_AND_ORGANIZATION ( #101, #133 ) ;
#249 = PERSON_AND_ORGANIZATION ( #101, #133 ) ;
#250 = ADVANCED_FACE ( 'NONE', ( #224, #10 ), #154, .T. ) ;
#251 = VERTEX_POINT ( 'NONE', #41 ) ;
#252 = CIRCLE ( 'NONE', #301, 1.254162432702594421 ) ;
#253 = APPROVAL_STATUS ( 'not_yet_approved' ) ;
#254 = FACE_OUTER_BOUND ( 'NONE', #176, .T. ) ;
#255 = ADVANCED_FACE ( 'NONE', ( #171 ), #225, .F. ) ;
#256 = PERSON_AND_ORGANIZATION_ROLE ( 'design_supplier' ) ;
#257 = EDGE_LOOP ( 'NONE', ( #240 ) ) ;
#258 = AXIS2_PLACEMENT_3D ( 'NONE', #98, #284, #3 ) ;
#259 = APPROVAL_PERSON_ORGANIZATION ( #21, #79, #184 ) ;
#260 = FACE_OUTER_BOUND ( 'NONE', #271, .T. ) ;
#261 = FACE_OUTER_BOUND ( 'NONE', #257, .T. ) ;
#262 = EDGE_CURVE ( 'NONE', #206, #206, #160, .T. ) ;
#263 = CARTESIAN_POINT ( 'NONE',  ( 2.119329172677781757E-13, -7.433606070824434221E-15, 60.69999999999999574 ) ) ;
#264 = AXIS2_PLACEMENT_3D ( 'NONE', #127, #123, #102 ) ;
#265 = CARTESIAN_POINT ( 'NONE',  ( 3.491481338843133355E-14, -1.224646799147353454E-15, 10.00000000000000000 ) ) ;
#266 = DIRECTION ( 'NONE',  ( 3.491481338843133355E-15, -1.224646799147353454E-16, 1.000000000000000000 ) ) ;
#267 = CC_DESIGN_PERSON_AND_ORGANIZATION_ASSIGNMENT ( #161, #187, ( #47 ) ) ;
#268 = DIRECTION ( 'NONE',  ( 4.275831445896959482E-31, 1.000000000000000000, 1.224646799147353454E-16 ) ) ;
#269 = VERTEX_POINT ( 'NONE', #137 ) ;
#270 = CARTESIAN_POINT ( 'NONE',  ( 8.728703347107833388E-14, 1.199999999999997069, 25.00000000000000000 ) ) ;
#271 = EDGE_LOOP ( 'NONE', ( #169 ) ) ;
#272 = PERSON_AND_ORGANIZATION ( #101, #133 ) ;
#273 = APPROVAL_PERSON_ORGANIZATION ( #248, #36, #114 ) ;
#274 = EDGE_LOOP ( 'NONE', ( #239 ) ) ;
#275 = COORDINATED_UNIVERSAL_TIME_OFFSET ( 1, 0, .AHEAD. ) ;
#276 = EDGE_LOOP ( 'NONE', ( #99 ) ) ;
#277 = VERTEX_POINT ( 'NONE', #207 ) ;
#278 = CONICAL_SURFACE ( 'NONE', #205, 1.499999999999996003, 0.1745329251994270359 ) ;
#279 = DATE_TIME_ROLE ( 'classification_date' ) ;
#280 = CC_DESIGN_DATE_AND_TIME_ASSIGNMENT ( #233, #210, ( #141 ) ) ;
#281 = APPROVAL_DATE_TIME ( #218, #208 ) ;
#282 = ORIENTED_EDGE ( 'NONE', *, *, #163, .T. ) ;
#283 = DATE_AND_TIME ( #4, #162 ) ;
#284 = DIRECTION ( 'NONE',  ( -3.491481338843133355E-15, 1.224646799147353454E-16, -1.000000000000000000 ) ) ;
#285 = MANIFOLD_SOLID_BREP ( 'Corps-Déplacer/Copier1[2]', #198 ) ;
#286 = CARTESIAN_POINT ( 'NONE',  ( 3.611522686833351350E-14, -1.266751636124733252E-15, 10.34381208530243157 ) ) ;
#287 = DIRECTION ( 'NONE',  ( 4.275831445896959482E-31, 1.000000000000000000, 1.224646799147353454E-16 ) ) ;
#288 = DIRECTION ( 'NONE',  ( -3.491481338843133355E-15, 1.224646799147353454E-16, -1.000000000000000000 ) ) ;
#289 = CC_DESIGN_APPROVAL ( #208, ( #55 ) ) ;
#290 = CARTESIAN_POINT ( 'NONE',  ( 2.129803616694311221E-13, -7.470345474798856659E-15, 61.00000000000000000 ) ) ;
#291 = CC_DESIGN_PERSON_AND_ORGANIZATION_ASSIGNMENT ( #249, #130, ( #159 ) ) ;
#292 = DIRECTION ( 'NONE',  ( 0.0000000000000000000, 1.000000000000000000, 0.0000000000000000000 ) ) ;
#293 = DIRECTION ( 'NONE',  ( -3.491481338843133355E-15, 1.224646799147353454E-16, -1.000000000000000000 ) ) ;
#294 = ORIENTED_EDGE ( 'NONE', *, *, #168, .T. ) ;
#295 = EDGE_CURVE ( 'NONE', #269, #269, #64, .T. ) ;
#296 = CARTESIAN_POINT ( 'NONE',  ( 8.728703347107833388E-16, 1.398499999999998744, 0.2500000000000000000 ) ) ;
#297 = AXIS2_PLACEMENT_3D ( 'NONE', #244, #37, #125 ) ;
#298 = FACE_OUTER_BOUND ( 'NONE', #136, .T. ) ;
#299 = PRODUCT_DEFINITION_SHAPE ( 'NONE', 'NONE',  #141 ) ;
#300 = VERTEX_POINT ( 'NONE', #129 ) ;
#301 = AXIS2_PLACEMENT_3D ( 'NONE', #194, #201, #268 ) ;
#302 = DIRECTION ( 'NONE',  ( 3.491481338843133355E-15, -1.224646799147353454E-16, 1.000000000000000000 ) ) ;
#303 = MECHANICAL_CONTEXT ( 'NONE', #13, 'mechanical' ) ;
ENDSEC;
END-ISO-10303-21;
