ISO-10303-21;
HEADER;
FILE_DESCRIPTION (( 'STEP AP203' ),
    '1' );
FILE_NAME ('965209.step',
    '2021-12-01T14:04:24',
    ( '' ),
    ( '' ),
    'SwSTEP 2.0',
    'SolidWorks 2019',
    '' );
FILE_SCHEMA (( 'CONFIG_CONTROL_DESIGN' ));
ENDSEC;

DATA;
#1 = VERTEX_POINT ( 'NONE', #145 ) ;
#2 = AXIS2_PLACEMENT_3D ( 'NONE', #19, #178, #206 ) ;
#3 = ORGANIZATION ( 'UNSPECIFIED', 'UNSPECIFIED', '' ) ;
#4 = VERTEX_POINT ( 'NONE', #80 ) ;
#5 = EDGE_LOOP ( 'NONE', ( #217 ) ) ;
#6 = DIRECTION ( 'NONE',  ( -3.491481338843133355E-15, 1.224646799147353207E-16, -1.000000000000000000 ) ) ;
#7 = PRODUCT ( '965209', '965209', '', ( #267 ) ) ;
#8 = FACE_OUTER_BOUND ( 'NONE', #102, .T. ) ;
#9 = CARTESIAN_POINT ( 'NONE',  ( 2.444036937190193349E-14, 6.336485081746334435E-33, 7.000000000000000000 ) ) ;
#10 = ORIENTED_EDGE ( 'NONE', *, *, #42, .T. ) ;
#11 = CALENDAR_DATE ( 2021, 1, 12 ) ;
#12 = ORIENTED_EDGE ( 'NONE', *, *, #256, .T. ) ;
#13 = COORDINATED_UNIVERSAL_TIME_OFFSET ( 1, 0, .AHEAD. ) ;
#14 = DIRECTION ( 'NONE',  ( 0.0000000000000000000, 1.000000000000000000, 0.0000000000000000000 ) ) ;
#15 = CALENDAR_DATE ( 2021, 1, 12 ) ;
#16 = CARTESIAN_POINT ( 'NONE',  ( 2.504511167915743435E-14, -8.784642641776457383E-16, 7.173205080756891228 ) ) ;
#17 = APPROVAL_PERSON_ORGANIZATION ( #273, #175, #60 ) ;
#18 = COORDINATED_UNIVERSAL_TIME_OFFSET ( 1, 0, .AHEAD. ) ;
#19 = CARTESIAN_POINT ( 'NONE',  ( 7.142451834720208938E-14, -2.505234864108558183E-15, 20.45679510086337061 ) ) ;
#20 = MANIFOLD_SOLID_BREP ( 'Corps-Déplacer/Copier1[1]', #132 ) ;
#21 = DIRECTION ( 'NONE',  ( -4.275831445896958607E-31, -1.000000000000000000, -1.224646799147353207E-16 ) ) ;
#22 = ADVANCED_FACE ( 'NONE', ( #8, #245 ), #125, .T. ) ;
#23 = AXIS2_PLACEMENT_3D ( 'NONE', #163, #214, #38 ) ;
#24 = PRODUCT_DEFINITION_FORMATION_WITH_SPECIFIED_SOURCE ( 'ANY', '', #7, .NOT_KNOWN. ) ;
#25 = APPROVAL ( #64, 'UNSPECIFIED' ) ;
#26 = CONICAL_SURFACE ( 'NONE', #192, 0.8449999999999989742, 0.5235987755982922653 ) ;
#27 = CYLINDRICAL_SURFACE ( 'NONE', #233, 0.8449999999999994182 ) ;
#28 = VERTEX_POINT ( 'NONE', #34 ) ;
#29 = CC_DESIGN_PERSON_AND_ORGANIZATION_ASSIGNMENT ( #153, #58, ( #51 ) ) ;
#30 = CONICAL_SURFACE ( 'NONE', #111, 0.7449999999999986633, 0.5235987755982960401 ) ;
#31 = ORIENTED_EDGE ( 'NONE', *, *, #291, .F. ) ;
#32 = DIRECTION ( 'NONE',  ( 0.0000000000000000000, 1.000000000000000000, 0.0000000000000000000 ) ) ;
#33 = ORIENTED_EDGE ( 'NONE', *, *, #282, .F. ) ;
#34 = CARTESIAN_POINT ( 'NONE',  ( 1.745740669421566678E-13, 1.199999999999995515, 50.00000000000000000 ) ) ;
#35 = EDGE_LOOP ( 'NONE', ( #197 ) ) ;
#36 = ADVANCED_FACE ( 'NONE', ( #99 ), #269, .F. ) ;
#37 = APPROVAL_STATUS ( 'not_yet_approved' ) ;
#38 = DIRECTION ( 'NONE',  ( -4.275831445896958607E-31, -1.000000000000000000, -1.224646799147353207E-16 ) ) ;
#39 = PERSON_AND_ORGANIZATION ( #70, #3 ) ;
#40 = EDGE_LOOP ( 'NONE', ( #193 ) ) ;
#41 = SHAPE_DEFINITION_REPRESENTATION ( #137, #268 ) ;
#42 = EDGE_CURVE ( 'NONE', #121, #121, #186, .T. ) ;
#43 = FACE_OUTER_BOUND ( 'NONE', #191, .T. ) ;
#44 = APPROVAL_DATE_TIME ( #82, #302 ) ;
#45 = DIRECTION ( 'NONE',  ( 0.0000000000000000000, 1.000000000000000000, 0.0000000000000000000 ) ) ;
#46 = DIRECTION ( 'NONE',  ( 3.491481338843133355E-15, -1.224646799147353207E-16, 1.000000000000000000 ) ) ;
#47 = AXIS2_PLACEMENT_3D ( 'NONE', #9, #53, #162 ) ;
#48 = CC_DESIGN_PERSON_AND_ORGANIZATION_ASSIGNMENT ( #274, #221, ( #24 ) ) ;
#49 = AXIS2_PLACEMENT_3D ( 'NONE', #115, #229, #86 ) ;
#50 = VERTEX_POINT ( 'NONE', #215 ) ;
#51 = PRODUCT_DEFINITION ( 'UNKNOWN', '', #24, #117 ) ;
#52 = PLANE ( 'NONE',  #47 ) ;
#53 = DIRECTION ( 'NONE',  ( 3.491481338843133355E-15, -1.224646799147353207E-16, 1.000000000000000000 ) ) ;
#54 = ORIENTED_EDGE ( 'NONE', *, *, #205, .T. ) ;
#55 = LOCAL_TIME ( 15, 4, 24.00000000000000000, #297 ) ;
#56 = EDGE_LOOP ( 'NONE', ( #241 ) ) ;
#57 = ORIENTED_EDGE ( 'NONE', *, *, #78, .F. ) ;
#58 = PERSON_AND_ORGANIZATION_ROLE ( 'creator' ) ;
#59 = DIRECTION ( 'NONE',  ( 4.275831445896958607E-31, 1.000000000000000000, 1.224646799147353207E-16 ) ) ;
#60 = APPROVAL_ROLE ( '' ) ;
#61 = EDGE_LOOP ( 'NONE', ( #165 ) ) ;
#62 = APPROVAL_DATE_TIME ( #251, #25 ) ;
#63 = DIRECTION ( 'NONE',  ( -3.491481338843133355E-15, 1.224646799147353207E-16, -1.000000000000000000 ) ) ;
#64 = APPROVAL_STATUS ( 'not_yet_approved' ) ;
#65 = FACE_OUTER_BOUND ( 'NONE', #271, .T. ) ;
#66 = AXIS2_PLACEMENT_3D ( 'NONE', #279, #254, #21 ) ;
#67 = PLANE ( 'NONE',  #66 ) ;
#68 = CARTESIAN_POINT ( 'NONE',  ( 1.745740669421566678E-13, -6.123233995736766085E-15, 50.00000000000000000 ) ) ;
#69 = CONICAL_SURFACE ( 'NONE', #159, 1.200000000000001732, 0.7853981633974453924 ) ;
#70 = PERSON ( 'UNSPECIFIED', 'UNSPECIFIED', 'UNSPECIFIED', ('UNSPECIFIED'), ('UNSPECIFIED'), ('UNSPECIFIED') ) ;
#71 = CARTESIAN_POINT ( 'NONE',  ( 5.707628016518647231E-14, -2.001966415627278450E-15, 16.34729635533384240 ) ) ;
#72 = AXIS2_PLACEMENT_3D ( 'NONE', #140, #6, #32 ) ;
#73 = VERTEX_POINT ( 'NONE', #75 ) ;
#74 = DIRECTION ( 'NONE',  ( 0.0000000000000000000, 1.000000000000000000, 0.0000000000000000000 ) ) ;
#75 = CARTESIAN_POINT ( 'NONE',  ( 2.504511167915743435E-14, 0.7449999999999978861, 7.173205080756891228 ) ) ;
#76 = ORIENTED_EDGE ( 'NONE', *, *, #234, .T. ) ;
#77 = APPLICATION_PROTOCOL_DEFINITION ( 'international standard', 'config_control_design', 1994, #259 ) ;
#78 = EDGE_CURVE ( 'NONE', #161, #161, #104, .T. ) ;
#79 = CARTESIAN_POINT ( 'NONE',  ( 0.0000000000000000000, 0.0000000000000000000, 0.0000000000000000000 ) ) ;
#80 = CARTESIAN_POINT ( 'NONE',  ( 2.444036937190193349E-14, 0.8449999999999989742, 7.000000000000000000 ) ) ;
#81 = ORIENTED_EDGE ( 'NONE', *, *, #234, .F. ) ;
#82 = DATE_AND_TIME ( #11, #183 ) ;
#83 = DIRECTION ( 'NONE',  ( -3.491481338843133355E-15, 1.224646799147353207E-16, -1.000000000000000000 ) ) ;
#84 = ADVANCED_FACE ( 'NONE', ( #261, #275 ), #164, .F. ) ;
#85 = CALENDAR_DATE ( 2021, 1, 12 ) ;
#86 = DIRECTION ( 'NONE',  ( 4.275831445896958607E-31, 1.000000000000000000, 1.224646799147353454E-16 ) ) ;
#87 = PRODUCT_RELATED_PRODUCT_CATEGORY ( 'detail', '', ( #7 ) ) ;
#88 = DATE_AND_TIME ( #246, #96 ) ;
#89 = DIRECTION ( 'NONE',  ( 4.275831445896958607E-31, 1.000000000000000000, 1.224646799147353207E-16 ) ) ;
#90 = CYLINDRICAL_SURFACE ( 'NONE', #49, 1.499999999999999112 ) ;
#91 = CIRCLE ( 'NONE', #281, 0.7006624327025946508 ) ;
#92 = ADVANCED_FACE ( 'NONE', ( #199, #173 ), #26, .T. ) ;
#93 = DIRECTION ( 'NONE',  ( 4.275831445896958607E-31, 1.000000000000000000, 1.224646799147353207E-16 ) ) ;
#94 =( LENGTH_UNIT ( ) NAMED_UNIT ( * ) SI_UNIT ( .MILLI., .METRE. ) );
#95 = CARTESIAN_POINT ( 'NONE',  ( 2.444036937190193349E-14, 0.8449999999999989742, 7.000000000000000000 ) ) ;
#96 = LOCAL_TIME ( 15, 4, 24.00000000000000000, #18 ) ;
#97 = EDGE_LOOP ( 'NONE', ( #12 ) ) ;
#98 = CARTESIAN_POINT ( 'NONE',  ( -1.892735826383160919E-31, 0.7006624327025946508, -5.421010862427522170E-17 ) ) ;
#99 = FACE_OUTER_BOUND ( 'NONE', #97, .T. ) ;
#100 = ADVANCED_FACE ( 'NONE', ( #154, #109 ), #90, .T. ) ;
#101 = DIRECTION ( 'NONE',  ( -3.491481338843133355E-15, 1.224646799147353207E-16, -1.000000000000000000 ) ) ;
#102 = EDGE_LOOP ( 'NONE', ( #292 ) ) ;
#103 = VERTEX_POINT ( 'NONE', #194 ) ;
#104 = CIRCLE ( 'NONE', #200, 0.8449999999999998623 ) ;
#105 = ORIENTED_EDGE ( 'NONE', *, *, #205, .F. ) ;
#106 = PERSON_AND_ORGANIZATION ( #70, #3 ) ;
#107 = ADVANCED_FACE ( 'NONE', ( #276, #65 ), #138, .T. ) ;
#108 = APPROVAL_ROLE ( '' ) ;
#109 = FACE_OUTER_BOUND ( 'NONE', #238, .T. ) ;
#110 = CARTESIAN_POINT ( 'NONE',  ( 0.0000000000000000000, 0.0000000000000000000, 0.0000000000000000000 ) ) ;
#111 = AXIS2_PLACEMENT_3D ( 'NONE', #16, #287, #218 ) ;
#112 = DIRECTION ( 'NONE',  ( 4.558414069555592979E-31, 1.000000000000000000, 1.283079494065687174E-16 ) ) ;
#113 = APPROVAL_DATE_TIME ( #174, #175 ) ;
#114 = CARTESIAN_POINT ( 'NONE',  ( 1.745740669421566678E-13, -6.123233995736766085E-15, 50.00000000000000000 ) ) ;
#115 = CARTESIAN_POINT ( 'NONE',  ( 0.0000000000000000000, 0.0000000000000000000, 0.0000000000000000000 ) ) ;
#116 = APPROVAL_PERSON_ORGANIZATION ( #150, #302, #198 ) ;
#117 = DESIGN_CONTEXT ( 'detailed design', #177, 'design' ) ;
#118 = FACE_OUTER_BOUND ( 'NONE', #265, .T. ) ;
#119 = VERTEX_POINT ( 'NONE', #98 ) ;
#120 = CIRCLE ( 'NONE', #157, 0.7449999999999986633 ) ;
#121 = VERTEX_POINT ( 'NONE', #209 ) ;
#122 = EDGE_LOOP ( 'NONE', ( #76 ) ) ;
#123 = ORIENTED_EDGE ( 'NONE', *, *, #256, .F. ) ;
#124 = CARTESIAN_POINT ( 'NONE',  ( 7.142451834720208938E-14, 1.499999999999994005, 20.45679510086337061 ) ) ;
#125 = CYLINDRICAL_SURFACE ( 'NONE', #278, 0.7449999999999992184 ) ;
#126 = PERSON_AND_ORGANIZATION ( #70, #3 ) ;
#127 = PERSON_AND_ORGANIZATION_ROLE ( 'design_supplier' ) ;
#128 = DIRECTION ( 'NONE',  ( -3.491481338843133355E-15, 1.224646799147353207E-16, -1.000000000000000000 ) ) ;
#129 = CALENDAR_DATE ( 2021, 1, 12 ) ;
#130 = DIRECTION ( 'NONE',  ( -3.491481338843133355E-15, 1.224646799147353207E-16, -1.000000000000000000 ) ) ;
#131 = DIRECTION ( 'NONE',  ( 0.0000000000000000000, 0.0000000000000000000, 1.000000000000000000 ) ) ;
#132 = CLOSED_SHELL ( 'NONE', ( #36, #247, #22, #84, #107, #100, #231, #286 ) ) ;
#133 = LOCAL_TIME ( 15, 4, 24.00000000000000000, #249 ) ;
#134 = CARTESIAN_POINT ( 'NONE',  ( 5.586370142149013368E-14, -2.168404344971008868E-15, 16.00000000000000000 ) ) ;
#135 = CC_DESIGN_DATE_AND_TIME_ASSIGNMENT ( #171, #196, ( #227 ) ) ;
#136 = DIRECTION ( 'NONE',  ( -3.491481338843133355E-15, 1.224646799147353207E-16, -1.000000000000000000 ) ) ;
#137 = PRODUCT_DEFINITION_SHAPE ( 'NONE', 'NONE',  #51 ) ;
#138 = CONICAL_SURFACE ( 'NONE', #2, 1.499999999999996669, 0.1745329251994262865 ) ;
#139 = AXIS2_PLACEMENT_3D ( 'NONE', #110, #131, #148 ) ;
#140 = CARTESIAN_POINT ( 'NONE',  ( 2.444036937190193349E-14, -8.572527594031473190E-16, 7.000000000000000000 ) ) ;
#141 = CARTESIAN_POINT ( 'NONE',  ( 1.745740669421566678E-13, 8.998558695971067645E-33, 50.00000000000000000 ) ) ;
#142 = EDGE_LOOP ( 'NONE', ( #10 ) ) ;
#143 = DIRECTION ( 'NONE',  ( -3.491481338843133355E-15, 1.224646799147353207E-16, -1.000000000000000000 ) ) ;
#144 = CIRCLE ( 'NONE', #272, 1.499999999999996669 ) ;
#145 = CARTESIAN_POINT ( 'NONE',  ( 1.735266225405037467E-13, 1.499999999999995559, 49.70000000000000284 ) ) ;
#146 = EDGE_LOOP ( 'NONE', ( #288 ) ) ;
#147 = EDGE_CURVE ( 'NONE', #28, #28, #230, .T. ) ;
#148 = DIRECTION ( 'NONE',  ( 1.000000000000000000, 0.0000000000000000000, 0.0000000000000000000 ) ) ;
#149 = EDGE_LOOP ( 'NONE', ( #57 ) ) ;
#150 = PERSON_AND_ORGANIZATION ( #70, #3 ) ;
#151 = CC_DESIGN_APPROVAL ( #302, ( #51 ) ) ;
#152 = EDGE_LOOP ( 'NONE', ( #31 ) ) ;
#153 = PERSON_AND_ORGANIZATION ( #70, #3 ) ;
#154 = FACE_OUTER_BOUND ( 'NONE', #266, .T. ) ;
#155 = CC_DESIGN_PERSON_AND_ORGANIZATION_ASSIGNMENT ( #293, #201, ( #7 ) ) ;
#156 = DIRECTION ( 'NONE',  ( 0.0000000000000000000, 1.000000000000000000, 0.0000000000000000000 ) ) ;
#157 = AXIS2_PLACEMENT_3D ( 'NONE', #228, #204, #223 ) ;
#158 = AXIS2_PLACEMENT_3D ( 'NONE', #134, #203, #89 ) ;
#159 = AXIS2_PLACEMENT_3D ( 'NONE', #68, #128, #14 ) ;
#160 = CARTESIAN_POINT ( 'NONE',  ( 8.728703347107829444E-16, -3.061616997868381785E-17, 0.2499999999999998890 ) ) ;
#161 = VERTEX_POINT ( 'NONE', #95 ) ;
#162 = DIRECTION ( 'NONE',  ( -4.275831445896958607E-31, -1.000000000000000000, -1.224646799147353207E-16 ) ) ;
#163 = CARTESIAN_POINT ( 'NONE',  ( 2.444036937190193349E-14, 6.336485081746334435E-33, 7.000000000000000000 ) ) ;
#164 = TOROIDAL_SURFACE ( 'NONE', #158, 2.745000000000000107, 2.000000000000000888 ) ;
#165 = ORIENTED_EDGE ( 'NONE', *, *, #147, .F. ) ;
#166 = CC_DESIGN_SECURITY_CLASSIFICATION ( #227, ( #24 ) ) ;
#167 = EDGE_LOOP ( 'NONE', ( #243 ) ) ;
#168 = DIRECTION ( 'NONE',  ( -3.491481338843133355E-15, 1.224646799147353207E-16, -1.000000000000000000 ) ) ;
#169 = SECURITY_CLASSIFICATION_LEVEL ( 'unclassified' ) ;
#170 = DIRECTION ( 'NONE',  ( 0.0000000000000000000, 1.000000000000000000, 0.0000000000000000000 ) ) ;
#171 = DATE_AND_TIME ( #85, #264 ) ;
#172 = CIRCLE ( 'NONE', #72, 0.8449999999999998623 ) ;
#173 = FACE_OUTER_BOUND ( 'NONE', #122, .T. ) ;
#174 = DATE_AND_TIME ( #15, #55 ) ;
#175 = APPROVAL ( #37, 'UNSPECIFIED' ) ;
#176 = DIRECTION ( 'NONE',  ( -3.491481338843133355E-15, 1.224646799147353207E-16, -1.000000000000000000 ) ) ;
#177 = APPLICATION_CONTEXT ( 'configuration controlled 3d designs of mechanical parts and assemblies' ) ;
#178 = DIRECTION ( 'NONE',  ( 3.491481338843133355E-15, -1.224646799147353207E-16, 1.000000000000000000 ) ) ;
#179 = AXIS2_PLACEMENT_3D ( 'NONE', #252, #136, #45 ) ;
#180 = CLOSED_SHELL ( 'NONE', ( #187, #92, #299, #263 ) ) ;
#181 = FACE_BOUND ( 'NONE', #56, .T. ) ;
#182 = EDGE_CURVE ( 'NONE', #73, #73, #120, .T. ) ;
#183 = LOCAL_TIME ( 15, 4, 24.00000000000000000, #13 ) ;
#184 = CC_DESIGN_PERSON_AND_ORGANIZATION_ASSIGNMENT ( #126, #270, ( #227 ) ) ;
#185 = DIRECTION ( 'NONE',  ( 0.0000000000000000000, 1.000000000000000000, 0.0000000000000000000 ) ) ;
#186 = CIRCLE ( 'NONE', #207, 0.7449999999999997735 ) ;
#187 = ADVANCED_FACE ( 'NONE', ( #301 ), #67, .F. ) ;
#188 =( NAMED_UNIT ( * ) PLANE_ANGLE_UNIT ( ) SI_UNIT ( $, .RADIAN. ) );
#189 = CARTESIAN_POINT ( 'NONE',  ( 2.444036937190193349E-14, -8.572527594031473190E-16, 7.000000000000000000 ) ) ;
#190 = DIRECTION ( 'NONE',  ( -3.491481338843133355E-15, 1.224646799147353207E-16, -1.000000000000000000 ) ) ;
#191 = EDGE_LOOP ( 'NONE', ( #123 ) ) ;
#192 = AXIS2_PLACEMENT_3D ( 'NONE', #160, #46, #298 ) ;
#193 = ORIENTED_EDGE ( 'NONE', *, *, #291, .T. ) ;
#194 = CARTESIAN_POINT ( 'NONE',  ( 5.707628016518647231E-14, 0.7753844939755770715, 16.34729635533384240 ) ) ;
#195 = ORIENTED_EDGE ( 'NONE', *, *, #282, .T. ) ;
#196 = DATE_TIME_ROLE ( 'classification_date' ) ;
#197 = ORIENTED_EDGE ( 'NONE', *, *, #210, .T. ) ;
#198 = APPROVAL_ROLE ( '' ) ;
#199 = FACE_BOUND ( 'NONE', #146, .T. ) ;
#200 = AXIS2_PLACEMENT_3D ( 'NONE', #189, #285, #74 ) ;
#201 = PERSON_AND_ORGANIZATION_ROLE ( 'design_owner' ) ;
#202 = AXIS2_PLACEMENT_3D ( 'NONE', #296, #130, #112 ) ;
#203 = DIRECTION ( 'NONE',  ( -3.491481338843133355E-15, 1.224646799147353207E-16, -1.000000000000000000 ) ) ;
#204 = DIRECTION ( 'NONE',  ( -3.491481338843133355E-15, 1.224646799147353207E-16, -1.000000000000000000 ) ) ;
#205 = EDGE_CURVE ( 'NONE', #1, #1, #277, .T. ) ;
#206 = DIRECTION ( 'NONE',  ( 0.0000000000000000000, -1.000000000000000000, 0.0000000000000000000 ) ) ;
#207 = AXIS2_PLACEMENT_3D ( 'NONE', #294, #83, #170 ) ;
#208 = AXIS2_PLACEMENT_3D ( 'NONE', #141, #190, #216 ) ;
#209 = CARTESIAN_POINT ( 'NONE',  ( 5.586370142149013368E-14, 0.7449999999999978861, 16.00000000000000000 ) ) ;
#210 = EDGE_CURVE ( 'NONE', #119, #119, #91, .T. ) ;
#211 = VERTEX_POINT ( 'NONE', #124 ) ;
#212 = AXIS2_PLACEMENT_3D ( 'NONE', #114, #176, #156 ) ;
#213 = CC_DESIGN_APPROVAL ( #175, ( #24 ) ) ;
#214 = DIRECTION ( 'NONE',  ( 3.491481338843133355E-15, -1.224646799147353207E-16, 1.000000000000000000 ) ) ;
#215 = CARTESIAN_POINT ( 'NONE',  ( 8.728703347107833388E-16, 0.8449999999999989742, 0.2500000000000000000 ) ) ;
#216 = DIRECTION ( 'NONE',  ( 4.275831445896958607E-31, 1.000000000000000000, 1.224646799147353207E-16 ) ) ;
#217 = ORIENTED_EDGE ( 'NONE', *, *, #42, .F. ) ;
#218 = DIRECTION ( 'NONE',  ( 0.0000000000000000000, 1.000000000000000000, 0.0000000000000000000 ) ) ;
#219 = EDGE_LOOP ( 'NONE', ( #105 ) ) ;
#220 = MANIFOLD_SOLID_BREP ( 'Corps-Déplacer/Copier1[2]', #180 ) ;
#221 = PERSON_AND_ORGANIZATION_ROLE ( 'creator' ) ;
#222 = CC_DESIGN_DATE_AND_TIME_ASSIGNMENT ( #88, #244, ( #51 ) ) ;
#223 = DIRECTION ( 'NONE',  ( 0.0000000000000000000, 1.000000000000000000, 0.0000000000000000000 ) ) ;
#224 = APPLICATION_PROTOCOL_DEFINITION ( 'international standard', 'config_control_design', 1994, #177 ) ;
#225 = FACE_BOUND ( 'NONE', #167, .T. ) ;
#226 = APPROVAL_STATUS ( 'not_yet_approved' ) ;
#227 = SECURITY_CLASSIFICATION ( '', '', #169 ) ;
#228 = CARTESIAN_POINT ( 'NONE',  ( 2.504511167915743435E-14, -8.784642641776457383E-16, 7.173205080756891228 ) ) ;
#229 = DIRECTION ( 'NONE',  ( -3.491481338843133355E-15, 1.224646799147353207E-16, -1.000000000000000000 ) ) ;
#230 = CIRCLE ( 'NONE', #212, 1.200000000000001732 ) ;
#231 = ADVANCED_FACE ( 'NONE', ( #300, #181 ), #69, .T. ) ;
#232 = UNCERTAINTY_MEASURE_WITH_UNIT (LENGTH_MEASURE( 1.000000000000000082E-05 ), #94, 'distance_accuracy_value', 'NONE');
#233 = AXIS2_PLACEMENT_3D ( 'NONE', #260, #242, #239 ) ;
#234 = EDGE_CURVE ( 'NONE', #50, #50, #280, .T. ) ;
#235 = CARTESIAN_POINT ( 'NONE',  ( 7.142451834720208938E-14, -2.505234864108558183E-15, 20.45679510086337061 ) ) ;
#236 = DIRECTION ( 'NONE',  ( 0.0000000000000000000, 1.000000000000000000, 0.0000000000000000000 ) ) ;
#237 =( GEOMETRIC_REPRESENTATION_CONTEXT ( 3 ) GLOBAL_UNCERTAINTY_ASSIGNED_CONTEXT ( ( #232 ) ) GLOBAL_UNIT_ASSIGNED_CONTEXT ( ( #94, #188, #284 ) ) REPRESENTATION_CONTEXT ( 'NONE', 'WORKASPACE' ) );
#238 = EDGE_LOOP ( 'NONE', ( #54 ) ) ;
#239 = DIRECTION ( 'NONE',  ( 4.275831445896958607E-31, 1.000000000000000000, 1.224646799147353207E-16 ) ) ;
#240 = CC_DESIGN_PERSON_AND_ORGANIZATION_ASSIGNMENT ( #106, #127, ( #24 ) ) ;
#241 = ORIENTED_EDGE ( 'NONE', *, *, #147, .T. ) ;
#242 = DIRECTION ( 'NONE',  ( -3.491481338843133355E-15, 1.224646799147353207E-16, -1.000000000000000000 ) ) ;
#243 = ORIENTED_EDGE ( 'NONE', *, *, #182, .T. ) ;
#244 = DATE_TIME_ROLE ( 'creation_date' ) ;
#245 = FACE_OUTER_BOUND ( 'NONE', #142, .T. ) ;
#246 = CALENDAR_DATE ( 2021, 1, 12 ) ;
#247 = ADVANCED_FACE ( 'NONE', ( #43, #225 ), #30, .T. ) ;
#248 = EDGE_LOOP ( 'NONE', ( #290 ) ) ;
#249 = COORDINATED_UNIVERSAL_TIME_OFFSET ( 1, 0, .AHEAD. ) ;
#250 = CARTESIAN_POINT ( 'NONE',  ( -4.888650289091576456E-31, 1.714707697870861720E-32, -1.400165091734782515E-16 ) ) ;
#251 = DATE_AND_TIME ( #129, #133 ) ;
#252 = CARTESIAN_POINT ( 'NONE',  ( 1.735266225405037467E-13, -6.086494591762345225E-15, 49.70000000000000284 ) ) ;
#253 = AXIS2_PLACEMENT_3D ( 'NONE', #71, #101, #236 ) ;
#254 = DIRECTION ( 'NONE',  ( 3.491481338843133355E-15, -1.224646799147353207E-16, 1.000000000000000000 ) ) ;
#255 = CIRCLE ( 'NONE', #253, 0.7753844939755790699 ) ;
#256 = EDGE_CURVE ( 'NONE', #4, #4, #172, .T. ) ;
#257 = PLANE ( 'NONE',  #208 ) ;
#258 = FACE_OUTER_BOUND ( 'NONE', #61, .T. ) ;
#259 = APPLICATION_CONTEXT ( 'configuration controlled 3d designs of mechanical parts and assemblies' ) ;
#260 = CARTESIAN_POINT ( 'NONE',  ( 0.0000000000000000000, 0.0000000000000000000, 0.0000000000000000000 ) ) ;
#261 = FACE_OUTER_BOUND ( 'NONE', #5, .T. ) ;
#262 = FACE_OUTER_BOUND ( 'NONE', #248, .T. ) ;
#263 = ADVANCED_FACE ( 'NONE', ( #283 ), #52, .T. ) ;
#264 = LOCAL_TIME ( 15, 4, 24.00000000000000000, #295 ) ;
#265 = EDGE_LOOP ( 'NONE', ( #81 ) ) ;
#266 = EDGE_LOOP ( 'NONE', ( #33 ) ) ;
#267 = MECHANICAL_CONTEXT ( 'NONE', #259, 'mechanical' ) ;
#268 = ADVANCED_BREP_SHAPE_REPRESENTATION ( '965209', ( #20, #220, #139 ), #237 ) ;
#269 = PLANE ( 'NONE',  #23 ) ;
#270 = PERSON_AND_ORGANIZATION_ROLE ( 'classification_officer' ) ;
#271 = EDGE_LOOP ( 'NONE', ( #195 ) ) ;
#272 = AXIS2_PLACEMENT_3D ( 'NONE', #235, #143, #185 ) ;
#273 = PERSON_AND_ORGANIZATION ( #70, #3 ) ;
#274 = PERSON_AND_ORGANIZATION ( #70, #3 ) ;
#275 = FACE_OUTER_BOUND ( 'NONE', #40, .T. ) ;
#276 = FACE_BOUND ( 'NONE', #152, .T. ) ;
#277 = CIRCLE ( 'NONE', #179, 1.500000000000001554 ) ;
#278 = AXIS2_PLACEMENT_3D ( 'NONE', #79, #168, #59 ) ;
#279 = CARTESIAN_POINT ( 'NONE',  ( -2.444325144545788228E-31, 8.573538489354308602E-33, -7.000825458673912577E-17 ) ) ;
#280 = CIRCLE ( 'NONE', #202, 0.8449999999999989742 ) ;
#281 = AXIS2_PLACEMENT_3D ( 'NONE', #250, #63, #93 ) ;
#282 = EDGE_CURVE ( 'NONE', #211, #211, #144, .T. ) ;
#283 = FACE_OUTER_BOUND ( 'NONE', #149, .T. ) ;
#284 =( NAMED_UNIT ( * ) SI_UNIT ( $, .STERADIAN. ) SOLID_ANGLE_UNIT ( ) );
#285 = DIRECTION ( 'NONE',  ( -3.491481338843133355E-15, 1.224646799147353207E-16, -1.000000000000000000 ) ) ;
#286 = ADVANCED_FACE ( 'NONE', ( #258 ), #257, .F. ) ;
#287 = DIRECTION ( 'NONE',  ( -3.491481338843133355E-15, 1.224646799147353207E-16, -1.000000000000000000 ) ) ;
#288 = ORIENTED_EDGE ( 'NONE', *, *, #210, .F. ) ;
#289 = APPROVAL_PERSON_ORGANIZATION ( #39, #25, #108 ) ;
#290 = ORIENTED_EDGE ( 'NONE', *, *, #78, .T. ) ;
#291 = EDGE_CURVE ( 'NONE', #103, #103, #255, .T. ) ;
#292 = ORIENTED_EDGE ( 'NONE', *, *, #182, .F. ) ;
#293 = PERSON_AND_ORGANIZATION ( #70, #3 ) ;
#294 = CARTESIAN_POINT ( 'NONE',  ( 5.586370142149013368E-14, -1.959434878635765131E-15, 16.00000000000000000 ) ) ;
#295 = COORDINATED_UNIVERSAL_TIME_OFFSET ( 1, 0, .AHEAD. ) ;
#296 = CARTESIAN_POINT ( 'NONE',  ( 8.728703347107829444E-16, -3.061616997868381785E-17, 0.2499999999999998890 ) ) ;
#297 = COORDINATED_UNIVERSAL_TIME_OFFSET ( 1, 0, .AHEAD. ) ;
#298 = DIRECTION ( 'NONE',  ( -4.558414069555592979E-31, -1.000000000000000000, -1.283079494065687174E-16 ) ) ;
#299 = ADVANCED_FACE ( 'NONE', ( #118, #262 ), #27, .T. ) ;
#300 = FACE_OUTER_BOUND ( 'NONE', #219, .T. ) ;
#301 = FACE_OUTER_BOUND ( 'NONE', #35, .T. ) ;
#302 = APPROVAL ( #226, 'UNSPECIFIED' ) ;
#303 = CC_DESIGN_APPROVAL ( #25, ( #227 ) ) ;
ENDSEC;
END-ISO-10303-21;
